  0
SECTION
  2
HEADER
  9
$ACADVER
  1
AC1015
  9
$ACADMAINTVER
 70
     6
  9
$DWGCODEPAGE
  3
ANSI_932
  9
$INSBASE
 10
591.7209567771588
 20
8.110360254358852
 30
0.0
  9
$EXTMIN
 10
591.7209567771588
 20
8.110360254358852
 30
0.0
  9
$EXTMAX
 10
962.9709641969546
 20
270.610365500679
 30
0.0
  9
$LIMMIN
 10
591.7209567771588
 20
8.110360254358852
  9
$LIMMAX
 10
962.9709641969546
 20
270.610365500679
  9
$ORTHOMODE
 70
     0
  9
$REGENMODE
 70
     1
  9
$FILLMODE
 70
     1
  9
$QTEXTMODE
 70
     0
  9
$MIRRTEXT
 70
     1
  9
$LTSCALE
 40
1.0
  9
$ATTMODE
 70
     1
  9
$TEXTSIZE
 40
0.2
  9
$TRACEWID
 40
0.05
  9
$TEXTSTYLE
  7
FX_VECTOR
  9
$CLAYER
  8
0
  9
$CELTYPE
  6
BYLAYER
  9
$CECOLOR
 62
   256
  9
$CELTSCALE
 40
1.0
  9
$DISPSILH
 70
     0
  9
$DIMSCALE
 40
1.0
  9
$DIMASZ
 40
2.0
  9
$DIMEXO
 40
2.0
  9
$DIMDLI
 40
7.0
  9
$DIMRND
 40
0.0
  9
$DIMDLE
 40
6.0
  9
$DIMEXE
 40
1.0
  9
$DIMTP
 40
0.0
  9
$DIMTM
 40
0.0
  9
$DIMTXT
 40
3.5
  9
$DIMCEN
 40
2.5
  9
$DIMTSZ
 40
0.0
  9
$DIMTOL
 70
     0
  9
$DIMLIM
 70
     0
  9
$DIMTIH
 70
     0
  9
$DIMTOH
 70
     0
  9
$DIMSE1
 70
     0
  9
$DIMSE2
 70
     0
  9
$DIMTAD
 70
     1
  9
$DIMZIN
 70
     8
  9
$DIMBLK
  1

  9
$DIMASO
 70
     1
  9
$DIMSHO
 70
     1
  9
$DIMPOST
  1

  9
$DIMAPOST
  1

  9
$DIMALT
 70
     0
  9
$DIMALTD
 70
     3
  9
$DIMALTF
 40
0.03937
  9
$DIMLFAC
 40
1.0
  9
$DIMTOFL
 70
     1
  9
$DIMTVP
 40
0.0
  9
$DIMTIX
 70
     0
  9
$DIMSOXD
 70
     0
  9
$DIMSAH
 70
     1
  9
$DIMBLK1
  1
FXTIP_ARROW_S
  9
$DIMBLK2
  1
FXTIP_ARROW_E
  9
$DIMSTYLE
  2
FXDIMINFO
  9
$DIMCLRD
 70
     7
  9
$DIMCLRE
 70
     7
  9
$DIMCLRT
 70
     7
  9
$DIMTFAC
 40
1.0
  9
$DIMGAP
 40
1.0
  9
$DIMJUST
 70
     0
  9
$DIMSD1
 70
     0
  9
$DIMSD2
 70
     0
  9
$DIMTOLJ
 70
     1
  9
$DIMTZIN
 70
     8
  9
$DIMALTZ
 70
     0
  9
$DIMALTTZ
 70
     0
  9
$DIMUPT
 70
     0
  9
$DIMDEC
 70
     2
  9
$DIMTDEC
 70
     2
  9
$DIMALTU
 70
     2
  9
$DIMALTTD
 70
     3
  9
$DIMTXSTY
  7
FX_VECTOR
  9
$DIMAUNIT
 70
     0
  9
$DIMADEC
 70
     2
  9
$DIMALTRND
 40
0.0
  9
$DIMAZIN
 70
     2
  9
$DIMDSEP
 70
    46
  9
$DIMATFIT
 70
     3
  9
$DIMFRAC
 70
     0
  9
$DIMLDRBLK
  1
FXTIP_ARROW_S
  9
$DIMLUNIT
 70
     2
  9
$DIMLWD
 70
    -2
  9
$DIMLWE
 70
    -2
  9
$DIMTMOVE
 70
     0
  9
$LUNITS
 70
     2
  9
$LUPREC
 70
     4
  9
$SKETCHINC
 40
0.1
  9
$FILLETRAD
 40
0.5
  9
$AUNITS
 70
     0
  9
$AUPREC
 70
     0
  9
$MENU
  1
acad
  9
$ELEVATION
 40
0.0
  9
$PELEVATION
 40
0.0
  9
$THICKNESS
 40
0.0
  9
$LIMCHECK
 70
     0
  9
$CHAMFERA
 40
0.5
  9
$CHAMFERB
 40
0.5
  9
$CHAMFERC
 40
1.0
  9
$CHAMFERD
 40
0.0
  9
$SKPOLY
 70
     0
  9
$TDCREATE
 40
2450193.849168137
  9
$TDUCREATE
 40
2450193.474168137
  9
$TDUPDATE
 40
2450193.849282303
  9
$TDUUPDATE
 40
2450193.474282303
  9
$TDINDWG
 40
0.0001141667
  9
$TDUSRTIMER
 40
0.0001141667
  9
$USRTIMER
 70
     1
  9
$ANGBASE
 50
0.0
  9
$ANGDIR
 70
     0
  9
$PDMODE
 70
     0
  9
$PDSIZE
 40
0.0
  9
$PLINEWID
 40
0.0
  9
$SPLFRAME
 70
     0
  9
$SPLINETYPE
 70
     6
  9
$SPLINESEGS
 70
     8
  9
$HANDSEED
  5
573
  9
$SURFTAB1
 70
     6
  9
$SURFTAB2
 70
     6
  9
$SURFTYPE
 70
     6
  9
$SURFU
 70
     6
  9
$SURFV
 70
     6
  9
$UCSBASE
  2

  9
$UCSNAME
  2

  9
$UCSORG
 10
0.0
 20
0.0
 30
0.0
  9
$UCSXDIR
 10
1.0
 20
0.0
 30
0.0
  9
$UCSYDIR
 10
0.0
 20
1.0
 30
0.0
  9
$UCSORTHOREF
  2

  9
$UCSORTHOVIEW
 70
     0
  9
$UCSORGTOP
 10
0.0
 20
0.0
 30
0.0
  9
$UCSORGBOTTOM
 10
0.0
 20
0.0
 30
0.0
  9
$UCSORGLEFT
 10
0.0
 20
0.0
 30
0.0
  9
$UCSORGRIGHT
 10
0.0
 20
0.0
 30
0.0
  9
$UCSORGFRONT
 10
0.0
 20
0.0
 30
0.0
  9
$UCSORGBACK
 10
0.0
 20
0.0
 30
0.0
  9
$PUCSBASE
  2

  9
$PUCSNAME
  2

  9
$PUCSORG
 10
0.0
 20
0.0
 30
0.0
  9
$PUCSXDIR
 10
1.0
 20
0.0
 30
0.0
  9
$PUCSYDIR
 10
0.0
 20
1.0
 30
0.0
  9
$PUCSORTHOREF
  2

  9
$PUCSORTHOVIEW
 70
     0
  9
$PUCSORGTOP
 10
0.0
 20
0.0
 30
0.0
  9
$PUCSORGBOTTOM
 10
0.0
 20
0.0
 30
0.0
  9
$PUCSORGLEFT
 10
0.0
 20
0.0
 30
0.0
  9
$PUCSORGRIGHT
 10
0.0
 20
0.0
 30
0.0
  9
$PUCSORGFRONT
 10
0.0
 20
0.0
 30
0.0
  9
$PUCSORGBACK
 10
0.0
 20
0.0
 30
0.0
  9
$USERI1
 70
     0
  9
$USERI2
 70
     0
  9
$USERI3
 70
     0
  9
$USERI4
 70
     0
  9
$USERI5
 70
     0
  9
$USERR1
 40
0.0
  9
$USERR2
 40
0.0
  9
$USERR3
 40
0.0
  9
$USERR4
 40
0.0
  9
$USERR5
 40
0.0
  9
$WORLDVIEW
 70
     1
  9
$SHADEDGE
 70
     3
  9
$SHADEDIF
 70
    70
  9
$TILEMODE
 70
     1
  9
$MAXACTVP
 70
    16
  9
$PINSBASE
 10
0.0
 20
0.0
 30
0.0
  9
$PLIMCHECK
 70
     0
  9
$PEXTMIN
 10
1.000000000000000E+20
 20
1.000000000000000E+20
 30
1.000000000000000E+20
  9
$PEXTMAX
 10
-1.000000000000000E+20
 20
-1.000000000000000E+20
 30
-1.000000000000000E+20
  9
$PLIMMIN
 10
0.0
 20
0.0
  9
$PLIMMAX
 10
12.0
 20
9.0
  9
$UNITMODE
 70
     0
  9
$VISRETAIN
 70
     0
  9
$PLINEGEN
 70
     0
  9
$PSLTSCALE
 70
     1
  9
$TREEDEPTH
 70
  3020
  9
$CMLSTYLE
  2
STANDARD
  9
$CMLJUST
 70
     0
  9
$CMLSCALE
 40
1.0
  9
$PROXYGRAPHICS
 70
     0
  9
$MEASUREMENT
 70
     0
  9
$CELWEIGHT
370
    -1
  9
$ENDCAPS
280
     0
  9
$JOINSTYLE
280
     0
  9
$LWDISPLAY
290
     0
  9
$INSUNITS
 70
     0
  9
$HYPERLINKBASE
  1

  9
$STYLESHEET
  1

  9
$XEDIT
290
     1
  9
$CEPSNTYPE
380
     0
  9
$PSTYLEMODE
290
     1
  9
$FINGERPRINTGUID
  2
{69B9CF2E-057A-4A3E-B294-0F859F7D4A36}
  9
$VERSIONGUID
  2
{FAEB1C32-E019-11D5-929B-00C0DF256EC4}
  9
$EXTNAMES
290
     1
  9
$PSVPSCALE
 40
0.0
  9
$OLESTARTUP
290
     0
  0
ENDSEC
  0
SECTION
  2
CLASSES
  0
CLASS
  1
SCALE
  2
AcDbScale
  3
ObjectDBX Classes
 90
     1153
280
     0
281
     0
  0
CLASS
  1
DICTIONARYVAR
  2
AcDbDictionaryVar
  3
ObjectDBX Classes
 90
        0
280
     0
281
     0
  0
CLASS
  1
ACDBPLACEHOLDER
  2
AcDbPlaceHolder
  3
ObjectDBX Classes
 90
        0
280
     0
281
     0
  0
CLASS
  1
LAYOUT
  2
AcDbLayout
  3
ObjectDBX Classes
 90
        0
280
     0
281
     0
  0
ENDSEC
  0
SECTION
  2
TABLES
  0
TABLE
  2
VPORT
  5
8
330
0
100
AcDbSymbolTable
 70
     2
  0
VPORT
  5
50
330
8
100
AcDbSymbolTableRecord
100
AcDbViewportTableRecord
  2
*ACTIVE
 70
     0
 10
0.0
 20
0.0
 11
1.0
 21
1.0
 12
777.3459604870567
 22
139.3603628775189
 13
0.0
 23
0.0
 14
0.15
 24
0.15
 15
0.0
 25
0.0
 16
0.0
 26
0.0
 36
1.0
 17
0.0
 27
0.0
 37
0.0
 40
262.5000052463201
 41
1.414285714285715
 42
50.0
 43
0.0
 44
0.0
 50
0.0
 51
0.0
 71
     0
 72
   100
 73
     1
 74
     0
 75
     0
 76
     0
 77
     0
 78
     0
281
     0
 65
     1
110
0.0
120
0.0
130
0.0
111
1.0
121
0.0
131
0.0
112
0.0
122
1.0
132
0.0
 79
     0
146
0.0
  0
ENDTAB
  0
TABLE
  2
LTYPE
  5
5
330
0
100
AcDbSymbolTable
 70
     5
  0
LTYPE
  5
14
330
5
100
AcDbSymbolTableRecord
100
AcDbLinetypeTableRecord
  2
BYBLOCK
 70
     0
  3

 72
    65
 73
     0
 40
0.0
  0
LTYPE
  5
15
330
5
100
AcDbSymbolTableRecord
100
AcDbLinetypeTableRecord
  2
BYLAYER
 70
     0
  3

 72
    65
 73
     0
 40
0.0
  0
LTYPE
  5
16
330
5
100
AcDbSymbolTableRecord
100
AcDbLinetypeTableRecord
  2
CONTINUOUS
 70
     0
  3
Continuous ___________________________________
 72
    65
 73
     0
 40
0.0
  0
ENDTAB
  0
TABLE
  2
LAYER
  5
2
330
0
100
AcDbSymbolTable
 70
     5
  0
LAYER
  5
F
330
2
100
AcDbSymbolTableRecord
100
AcDbLayerTableRecord
  2
0
 70
     0
 62
     7
  6
CONTINUOUS
370
    -3
390
0
  0
LAYER
  5
E4
330
2
100
AcDbSymbolTableRecord
100
AcDbLayerTableRecord
  2
Defpoints
 70
     0
 62
     7
  6
CONTINUOUS
290
     0
370
    -3
390
0
  0
LAYER
  5
E5
330
2
100
AcDbSymbolTableRecord
100
AcDbLayerTableRecord
  2
GR1_01
 70
     0
 62
     7
  6
CONTINUOUS
370
    -3
390
0
  0
ENDTAB
  0
TABLE
  2
STYLE
  5
3
330
0
100
AcDbSymbolTable
 70
     3
  0
STYLE
  5
10
330
3
100
AcDbSymbolTableRecord
100
AcDbTextStyleTableRecord
  2
STANDARD
 70
     0
 40
0.0
 41
1.0
 50
0.0
 71
     0
 42
0.2
  3
txt
  4

  0
STYLE
  5
7C
330
3
100
AcDbSymbolTableRecord
100
AcDbTextStyleTableRecord
  2
FX_VECTOR
 70
     0
 40
0.0
 41
1.0
 50
0.0
 71
     0
 42
0.2
  3
MONOTXT.SHX
  4
BigFont.shx
  0
STYLE
  5
F4
330
3
100
AcDbSymbolTableRecord
100
AcDbTextStyleTableRecord
  2
STYLE003
 70
     0
 40
0.0
 41
1.0
 50
0.0
 71
     0
 42
0.2
  3

  4

1001
ACAD
1000
ＭＳ ゴシック
1071
    32817
  0
ENDTAB
  0
TABLE
  2
VIEW
  5
6
330
0
100
AcDbSymbolTable
 70
     0
  0
ENDTAB
  0
TABLE
  2
UCS
  5
7
330
0
100
AcDbSymbolTable
 70
     0
  0
ENDTAB
  0
TABLE
  2
APPID
  5
9
330
0
100
AcDbSymbolTable
 70
     1
  0
APPID
  5
11
330
9
100
AcDbSymbolTableRecord
100
AcDbRegAppTableRecord
  2
ACAD
 70
     0
  0
ENDTAB
  0
TABLE
  2
DIMSTYLE
  5
A
330
0
100
AcDbSymbolTable
 70
     2
100
AcDbDimStyleTable
  0
DIMSTYLE
105
1D
330
A
100
AcDbSymbolTableRecord
100
AcDbDimStyleTableRecord
  2
STANDARD
 70
     0
178
     0
340
10
  0
DIMSTYLE
105
E3
330
A
100
AcDbSymbolTableRecord
100
AcDbDimStyleTableRecord
  2
FXDIMINFO
 70
     0
 41
2.0
 42
2.0
 43
7.0
 44
1.0
 46
6.0
 73
     0
 74
     0
 77
     1
 78
     8
 79
     2
140
3.5
141
2.5
143
0.03937
147
1.0
171
     3
172
     1
173
     1
176
     7
177
     7
271
     2
178
     7
179
     2
271
     2
272
     2
274
     3
284
     8
340
7C
341
7D
343
7D
344
83
  0
ENDTAB
  0
TABLE
  2
BLOCK_RECORD
  5
1
330
0
100
AcDbSymbolTable
 70
    23
  0
BLOCK_RECORD
  5
1A
330
1
100
AcDbSymbolTableRecord
100
AcDbBlockTableRecord
  2
*MODEL_SPACE
340
52
  0
BLOCK_RECORD
  5
17
330
1
100
AcDbSymbolTableRecord
100
AcDbBlockTableRecord
  2
*PAPER_SPACE
340
53
  0
BLOCK_RECORD
  5
7D
330
1
100
AcDbSymbolTableRecord
100
AcDbBlockTableRecord
  2
FXTIP_ARROW_S
340
0
102
{BLKREFS
331
4DC
331
4E2
331
4E8
331
4F3
331
4FE
331
503
331
509
331
50F
331
515
331
51A
331
51F
331
525
331
531
331
536
331
53C
331
543
331
546
331
551
331
557
331
55D
331
563
331
569
102
}
  0
BLOCK_RECORD
  5
83
330
1
100
AcDbSymbolTableRecord
100
AcDbBlockTableRecord
  2
FXTIP_ARROW_E
340
0
102
{BLKREFS
331
4DD
331
4E3
331
4E9
331
4F0
331
4F4
331
4FC
331
505
331
50A
331
510
331
516
331
51B
331
520
331
526
331
52E
331
532
331
537
331
53D
331
547
331
54E
331
552
331
558
331
55E
331
564
331
56A
102
}
  0
BLOCK_RECORD
  5
89
330
1
100
AcDbSymbolTableRecord
100
AcDbBlockTableRecord
  2
FXTIP_BLACKDOT_S
340
0
  0
BLOCK_RECORD
  5
8F
330
1
100
AcDbSymbolTableRecord
100
AcDbBlockTableRecord
  2
FXTIP_BLACKDOT_E
340
0
  0
BLOCK_RECORD
  5
95
330
1
100
AcDbSymbolTableRecord
100
AcDbBlockTableRecord
  2
FXTIP_TRIANGLE_S
340
0
  0
BLOCK_RECORD
  5
9C
330
1
100
AcDbSymbolTableRecord
100
AcDbBlockTableRecord
  2
FXTIP_TRIANGLE_E
340
0
  0
BLOCK_RECORD
  5
A3
330
1
100
AcDbSymbolTableRecord
100
AcDbBlockTableRecord
  2
FXTIP_ARCHITECT_S
340
0
  0
BLOCK_RECORD
  5
A9
330
1
100
AcDbSymbolTableRecord
100
AcDbBlockTableRecord
  2
FXTIP_ARCHITECT_E
340
0
  0
BLOCK_RECORD
  5
AF
330
1
100
AcDbSymbolTableRecord
100
AcDbBlockTableRecord
  2
FXTIP_CIVIL_S
340
0
  0
BLOCK_RECORD
  5
B5
330
1
100
AcDbSymbolTableRecord
100
AcDbBlockTableRecord
  2
FXTIP_CIVIL_E
340
0
  0
BLOCK_RECORD
  5
BB
330
1
100
AcDbSymbolTableRecord
100
AcDbBlockTableRecord
  2
FXTIP_WHITEDOT_S
340
0
  0
BLOCK_RECORD
  5
C0
330
1
100
AcDbSymbolTableRecord
100
AcDbBlockTableRecord
  2
FXTIP_WHITEDOT_E
340
0
  0
BLOCK_RECORD
  5
C5
330
1
100
AcDbSymbolTableRecord
100
AcDbBlockTableRecord
  2
FXTIP_UPARROW_S
340
0
  0
BLOCK_RECORD
  5
CA
330
1
100
AcDbSymbolTableRecord
100
AcDbBlockTableRecord
  2
FXTIP_UPARROW_E
340
0
  0
BLOCK_RECORD
  5
CF
330
1
100
AcDbSymbolTableRecord
100
AcDbBlockTableRecord
  2
FXTIP_DOWNARROW_S
340
0
  0
BLOCK_RECORD
  5
D4
330
1
100
AcDbSymbolTableRecord
100
AcDbBlockTableRecord
  2
FXTIP_DOWNARROW_E
340
0
  0
BLOCK_RECORD
  5
D9
330
1
100
AcDbSymbolTableRecord
100
AcDbBlockTableRecord
  2
FXTIP_BLACKTRIANGLE_S
340
0
  0
BLOCK_RECORD
  5
DE
330
1
100
AcDbSymbolTableRecord
100
AcDbBlockTableRecord
  2
FXTIP_BLACKTRIANGLE_E
340
0
  0
BLOCK_RECORD
  5
1D4
330
1
100
AcDbSymbolTableRecord
100
AcDbBlockTableRecord
  2
BLKF021
340
0
102
{BLKREFS
331
1D7
102
}
  0
BLOCK_RECORD
  5
241
330
1
100
AcDbSymbolTableRecord
100
AcDbBlockTableRecord
  2
BLKF022
340
0
102
{BLKREFS
331
244
102
}
  0
BLOCK_RECORD
  5
2E1
330
1
100
AcDbSymbolTableRecord
100
AcDbBlockTableRecord
  2
BLKF023
340
0
102
{BLKREFS
331
2E4
102
}
  0
BLOCK_RECORD
  5
365
330
1
100
AcDbSymbolTableRecord
100
AcDbBlockTableRecord
  2
BLKF024
340
0
102
{BLKREFS
331
368
102
}
  0
BLOCK_RECORD
  5
462
330
1
100
AcDbSymbolTableRecord
100
AcDbBlockTableRecord
  2
BLKF025
340
0
102
{BLKREFS
331
465
102
}
  0
ENDTAB
  0
ENDSEC
  0
SECTION
  2
BLOCKS
  0
BLOCK
  5
1B
330
1A
100
AcDbEntity
  8
0
100
AcDbBlockBegin
  2
*MODEL_SPACE
 70
     0
 10
0.0
 20
0.0
 30
0.0
  3
*MODEL_SPACE
  1

  0
ENDBLK
  5
1C
330
1A
100
AcDbEntity
  8
0
100
AcDbBlockEnd
  0
BLOCK
  5
18
330
17
100
AcDbEntity
 67
     1
  8
0
100
AcDbBlockBegin
  2
*PAPER_SPACE
 70
     0
 10
0.0
 20
0.0
 30
0.0
  3
*PAPER_SPACE
  1

  0
ENDBLK
  5
19
330
17
100
AcDbEntity
 67
     1
  8
0
100
AcDbBlockEnd
  0
BLOCK
  5
7E
330
7D
100
AcDbEntity
  8
0
100
AcDbBlockBegin
  2
FXTIP_ARROW_S
 70
     0
 10
0.0
 20
0.0
 30
0.0
  3
FXTIP_ARROW_S
  1

  0
LINE
  5
80
330
7D
100
AcDbEntity
  8
0
  6
Continuous
 62
     0
370
    -2
100
AcDbLine
 10
0.0
 20
0.0
 30
0.0
 11
-1.0
 21
0.0000000000000001
 31
0.0
  0
LINE
  5
81
330
7D
100
AcDbEntity
  8
0
  6
Continuous
 62
     0
370
    -2
100
AcDbLine
 10
0.0
 20
0.0
 30
0.0
 11
-0.9659258262890683
 21
-0.2588190451025206
 31
0.0
  0
LINE
  5
82
330
7D
100
AcDbEntity
  8
0
  6
Continuous
 62
     0
370
    -2
100
AcDbLine
 10
0.0
 20
0.0
 30
0.0
 11
-0.9659258262890683
 21
0.2588190451025209
 31
0.0
  0
ENDBLK
  5
7F
330
7D
100
AcDbEntity
  8
0
100
AcDbBlockEnd
  0
BLOCK
  5
84
330
83
100
AcDbEntity
  8
0
100
AcDbBlockBegin
  2
FXTIP_ARROW_E
 70
     0
 10
0.0
 20
0.0
 30
0.0
  3
FXTIP_ARROW_E
  1

  0
LINE
  5
86
330
83
100
AcDbEntity
  8
0
  6
Continuous
 62
     0
370
    -2
100
AcDbLine
 10
0.0
 20
0.0
 30
0.0
 11
-1.0
 21
0.0
 31
0.0
  0
LINE
  5
87
330
83
100
AcDbEntity
  8
0
  6
Continuous
 62
     0
370
    -2
100
AcDbLine
 10
0.0
 20
0.0
 30
0.0
 11
-0.9659258262890683
 21
0.2588190451025207
 31
0.0
  0
LINE
  5
88
330
83
100
AcDbEntity
  8
0
  6
Continuous
 62
     0
370
    -2
100
AcDbLine
 10
0.0
 20
0.0
 30
0.0
 11
-0.9659258262890683
 21
-0.2588190451025207
 31
0.0
  0
ENDBLK
  5
85
330
83
100
AcDbEntity
  8
0
100
AcDbBlockEnd
  0
BLOCK
  5
8A
330
89
100
AcDbEntity
  8
0
100
AcDbBlockBegin
  2
FXTIP_BLACKDOT_S
 70
     0
 10
0.0
 20
0.0
 30
0.0
  3
FXTIP_BLACKDOT_S
  1

  0
LINE
  5
8C
330
89
100
AcDbEntity
  8
0
  6
Continuous
 62
     0
370
    -2
100
AcDbLine
 10
0.0
 20
0.0
 30
0.0
 11
-1.0
 21
0.0000000000000001
 31
0.0
  0
LWPOLYLINE
  5
8D
330
89
100
AcDbEntity
  8
0
  6
Continuous
 62
     0
370
    -2
100
AcDbPolyline
 90
        2
 70
     1
 10
-0.25
 20
0.0
 40
0.5
 41
0.5
 42
1.0
 10
0.25
 20
0.0
 40
0.5
 41
0.5
 42
1.0
  0
CIRCLE
  5
8E
330
89
100
AcDbEntity
  8
0
  6
Continuous
 62
     0
370
    -2
100
AcDbCircle
 10
0.0
 20
0.0
 30
0.0
 40
0.5
  0
ENDBLK
  5
8B
330
89
100
AcDbEntity
  8
0
100
AcDbBlockEnd
  0
BLOCK
  5
90
330
8F
100
AcDbEntity
  8
0
100
AcDbBlockBegin
  2
FXTIP_BLACKDOT_E
 70
     0
 10
0.0
 20
0.0
 30
0.0
  3
FXTIP_BLACKDOT_E
  1

  0
LINE
  5
92
330
8F
100
AcDbEntity
  8
0
  6
Continuous
 62
     0
370
    -2
100
AcDbLine
 10
0.0
 20
0.0
 30
0.0
 11
-1.0
 21
0.0
 31
0.0
  0
LWPOLYLINE
  5
93
330
8F
100
AcDbEntity
  8
0
  6
Continuous
 62
     0
370
    -2
100
AcDbPolyline
 90
        2
 70
     1
 10
-0.25
 20
0.0
 40
0.5
 41
0.5
 42
1.0
 10
0.25
 20
0.0
 40
0.5
 41
0.5
 42
1.0
  0
CIRCLE
  5
94
330
8F
100
AcDbEntity
  8
0
  6
Continuous
 62
     0
370
    -2
100
AcDbCircle
 10
0.0
 20
0.0
 30
0.0
 40
0.5
  0
ENDBLK
  5
91
330
8F
100
AcDbEntity
  8
0
100
AcDbBlockEnd
  0
BLOCK
  5
96
330
95
100
AcDbEntity
  8
0
100
AcDbBlockBegin
  2
FXTIP_TRIANGLE_S
 70
     0
 10
0.0
 20
0.0
 30
0.0
  3
FXTIP_TRIANGLE_S
  1

  0
LINE
  5
98
330
95
100
AcDbEntity
  8
0
  6
Continuous
 62
     0
370
    -2
100
AcDbLine
 10
0.0
 20
0.0
 30
0.0
 11
-1.0
 21
0.0000000000000001
 31
0.0
  0
LINE
  5
99
330
95
100
AcDbEntity
  8
0
  6
Continuous
 62
     0
370
    -2
100
AcDbLine
 10
0.0
 20
0.0
 30
0.0
 11
-0.9659258262890683
 21
-0.2588190451025206
 31
0.0
  0
LINE
  5
9A
330
95
100
AcDbEntity
  8
0
  6
Continuous
 62
     0
370
    -2
100
AcDbLine
 10
0.0
 20
0.0
 30
0.0
 11
-0.9659258262890683
 21
0.2588190451025209
 31
0.0
  0
LINE
  5
9B
330
95
100
AcDbEntity
  8
0
  6
Continuous
 62
     0
370
    -2
100
AcDbLine
 10
-0.9659258262890683
 20
-0.2588190451025206
 30
0.0
 11
-0.9659258262890683
 21
0.2588190451025209
 31
0.0
  0
ENDBLK
  5
97
330
95
100
AcDbEntity
  8
0
100
AcDbBlockEnd
  0
BLOCK
  5
9D
330
9C
100
AcDbEntity
  8
0
100
AcDbBlockBegin
  2
FXTIP_TRIANGLE_E
 70
     0
 10
0.0
 20
0.0
 30
0.0
  3
FXTIP_TRIANGLE_E
  1

  0
LINE
  5
9F
330
9C
100
AcDbEntity
  8
0
  6
Continuous
 62
     0
370
    -2
100
AcDbLine
 10
0.0
 20
0.0
 30
0.0
 11
-1.0
 21
0.0
 31
0.0
  0
LINE
  5
A0
330
9C
100
AcDbEntity
  8
0
  6
Continuous
 62
     0
370
    -2
100
AcDbLine
 10
0.0
 20
0.0
 30
0.0
 11
-0.9659258262890683
 21
0.2588190451025207
 31
0.0
  0
LINE
  5
A1
330
9C
100
AcDbEntity
  8
0
  6
Continuous
 62
     0
370
    -2
100
AcDbLine
 10
0.0
 20
0.0
 30
0.0
 11
-0.9659258262890683
 21
-0.2588190451025207
 31
0.0
  0
LINE
  5
A2
330
9C
100
AcDbEntity
  8
0
  6
Continuous
 62
     0
370
    -2
100
AcDbLine
 10
-0.9659258262890683
 20
0.2588190451025207
 30
0.0
 11
-0.9659258262890683
 21
-0.2588190451025207
 31
0.0
  0
ENDBLK
  5
9E
330
9C
100
AcDbEntity
  8
0
100
AcDbBlockEnd
  0
BLOCK
  5
A4
330
A3
100
AcDbEntity
  8
0
100
AcDbBlockBegin
  2
FXTIP_ARCHITECT_S
 70
     0
 10
0.0
 20
0.0
 30
0.0
  3
FXTIP_ARCHITECT_S
  1

  0
LINE
  5
A6
330
A3
100
AcDbEntity
  8
0
  6
Continuous
 62
     0
370
    -2
100
AcDbLine
 10
0.0
 20
0.0
 30
0.0
 11
-1.0
 21
0.0000000000000001
 31
0.0
  0
LINE
  5
A7
330
A3
100
AcDbEntity
  8
0
  6
Continuous
 62
     0
370
    -2
100
AcDbLine
 10
0.0
 20
0.0
 30
0.0
 11
-0.7071067811865476
 21
-0.7071067811865474
 31
0.0
  0
LINE
  5
A8
330
A3
100
AcDbEntity
  8
0
  6
Continuous
 62
     0
370
    -2
100
AcDbLine
 10
0.0
 20
0.0
 30
0.0
 11
0.7071067811865476
 21
0.7071067811865474
 31
0.0
  0
ENDBLK
  5
A5
330
A3
100
AcDbEntity
  8
0
100
AcDbBlockEnd
  0
BLOCK
  5
AA
330
A9
100
AcDbEntity
  8
0
100
AcDbBlockBegin
  2
FXTIP_ARCHITECT_E
 70
     0
 10
0.0
 20
0.0
 30
0.0
  3
FXTIP_ARCHITECT_E
  1

  0
LINE
  5
AC
330
A9
100
AcDbEntity
  8
0
  6
Continuous
 62
     0
370
    -2
100
AcDbLine
 10
0.0
 20
0.0
 30
0.0
 11
-1.0
 21
0.0
 31
0.0
  0
LINE
  5
AD
330
A9
100
AcDbEntity
  8
0
  6
Continuous
 62
     0
370
    -2
100
AcDbLine
 10
0.0
 20
0.0
 30
0.0
 11
0.7071067811865475
 21
0.7071067811865475
 31
0.0
  0
LINE
  5
AE
330
A9
100
AcDbEntity
  8
0
  6
Continuous
 62
     0
370
    -2
100
AcDbLine
 10
0.0
 20
0.0
 30
0.0
 11
-0.7071067811865475
 21
-0.7071067811865475
 31
0.0
  0
ENDBLK
  5
AB
330
A9
100
AcDbEntity
  8
0
100
AcDbBlockEnd
  0
BLOCK
  5
B0
330
AF
100
AcDbEntity
  8
0
100
AcDbBlockBegin
  2
FXTIP_CIVIL_S
 70
     0
 10
0.0
 20
0.0
 30
0.0
  3
FXTIP_CIVIL_S
  1

  0
LINE
  5
B2
330
AF
100
AcDbEntity
  8
0
  6
Continuous
 62
     0
370
    -2
100
AcDbLine
 10
0.0
 20
0.0
 30
0.0
 11
-1.0
 21
0.0000000000000002
 31
0.0
  0
LINE
  5
B3
330
AF
100
AcDbEntity
  8
0
  6
Continuous
 62
     0
370
    -2
100
AcDbLine
 10
0.0
 20
-0.125
 30
0.0
 11
-1.0
 21
-0.1249999999999998
 31
0.0
  0
LINE
  5
B4
330
AF
100
AcDbEntity
  8
0
  6
Continuous
 62
     0
370
    -2
100
AcDbLine
 10
0.0
 20
-0.25
 30
0.0
 11
-1.0
 21
-0.2499999999999999
 31
0.0
  0
ENDBLK
  5
B1
330
AF
100
AcDbEntity
  8
0
100
AcDbBlockEnd
  0
BLOCK
  5
B6
330
B5
100
AcDbEntity
  8
0
100
AcDbBlockBegin
  2
FXTIP_CIVIL_E
 70
     0
 10
0.0
 20
0.0
 30
0.0
  3
FXTIP_CIVIL_E
  1

  0
LINE
  5
B8
330
B5
100
AcDbEntity
  8
0
  6
Continuous
 62
     0
370
    -2
100
AcDbLine
 10
0.0
 20
0.0
 30
0.0
 11
-1.0
 21
0.0
 31
0.0
  0
LINE
  5
B9
330
B5
100
AcDbEntity
  8
0
  6
Continuous
 62
     0
370
    -2
100
AcDbLine
 10
0.0
 20
0.125
 30
0.0
 11
-1.0
 21
0.125
 31
0.0
  0
LINE
  5
BA
330
B5
100
AcDbEntity
  8
0
  6
Continuous
 62
     0
370
    -2
100
AcDbLine
 10
0.0
 20
0.25
 30
0.0
 11
-1.0
 21
0.25
 31
0.0
  0
ENDBLK
  5
B7
330
B5
100
AcDbEntity
  8
0
100
AcDbBlockEnd
  0
BLOCK
  5
BC
330
BB
100
AcDbEntity
  8
0
100
AcDbBlockBegin
  2
FXTIP_WHITEDOT_S
 70
     0
 10
0.0
 20
0.0
 30
0.0
  3
FXTIP_WHITEDOT_S
  1

  0
LINE
  5
BE
330
BB
100
AcDbEntity
  8
0
  6
Continuous
 62
     0
370
    -2
100
AcDbLine
 10
0.0
 20
0.0
 30
0.0
 11
-1.0
 21
0.0000000000000001
 31
0.0
  0
CIRCLE
  5
BF
330
BB
100
AcDbEntity
  8
0
  6
Continuous
 62
     0
370
    -2
100
AcDbCircle
 10
0.0
 20
0.0
 30
0.0
 40
0.5
  0
ENDBLK
  5
BD
330
BB
100
AcDbEntity
  8
0
100
AcDbBlockEnd
  0
BLOCK
  5
C1
330
C0
100
AcDbEntity
  8
0
100
AcDbBlockBegin
  2
FXTIP_WHITEDOT_E
 70
     0
 10
0.0
 20
0.0
 30
0.0
  3
FXTIP_WHITEDOT_E
  1

  0
LINE
  5
C3
330
C0
100
AcDbEntity
  8
0
  6
Continuous
 62
     0
370
    -2
100
AcDbLine
 10
0.0
 20
0.0
 30
0.0
 11
-1.0
 21
0.0
 31
0.0
  0
CIRCLE
  5
C4
330
C0
100
AcDbEntity
  8
0
  6
Continuous
 62
     0
370
    -2
100
AcDbCircle
 10
0.0
 20
0.0
 30
0.0
 40
0.5
  0
ENDBLK
  5
C2
330
C0
100
AcDbEntity
  8
0
100
AcDbBlockEnd
  0
BLOCK
  5
C6
330
C5
100
AcDbEntity
  8
0
100
AcDbBlockBegin
  2
FXTIP_UPARROW_S
 70
     0
 10
0.0
 20
0.0
 30
0.0
  3
FXTIP_UPARROW_S
  1

  0
LINE
  5
C8
330
C5
100
AcDbEntity
  8
0
  6
Continuous
 62
     0
370
    -2
100
AcDbLine
 10
0.0
 20
0.0
 30
0.0
 11
-1.0
 21
0.0000000000000001
 31
0.0
  0
LINE
  5
C9
330
C5
100
AcDbEntity
  8
0
  6
Continuous
 62
     0
370
    -2
100
AcDbLine
 10
0.0
 20
0.0
 30
0.0
 11
-0.9659258262890683
 21
-0.2588190451025206
 31
0.0
  0
ENDBLK
  5
C7
330
C5
100
AcDbEntity
  8
0
100
AcDbBlockEnd
  0
BLOCK
  5
CB
330
CA
100
AcDbEntity
  8
0
100
AcDbBlockBegin
  2
FXTIP_UPARROW_E
 70
     0
 10
0.0
 20
0.0
 30
0.0
  3
FXTIP_UPARROW_E
  1

  0
LINE
  5
CD
330
CA
100
AcDbEntity
  8
0
  6
Continuous
 62
     0
370
    -2
100
AcDbLine
 10
0.0
 20
0.0
 30
0.0
 11
-1.0
 21
0.0
 31
0.0
  0
LINE
  5
CE
330
CA
100
AcDbEntity
  8
0
  6
Continuous
 62
     0
370
    -2
100
AcDbLine
 10
0.0
 20
0.0
 30
0.0
 11
-0.9659258262890683
 21
0.2588190451025207
 31
0.0
  0
ENDBLK
  5
CC
330
CA
100
AcDbEntity
  8
0
100
AcDbBlockEnd
  0
BLOCK
  5
D0
330
CF
100
AcDbEntity
  8
0
100
AcDbBlockBegin
  2
FXTIP_DOWNARROW_S
 70
     0
 10
0.0
 20
0.0
 30
0.0
  3
FXTIP_DOWNARROW_S
  1

  0
LINE
  5
D2
330
CF
100
AcDbEntity
  8
0
  6
Continuous
 62
     0
370
    -2
100
AcDbLine
 10
0.0
 20
0.0
 30
0.0
 11
-1.0
 21
0.0000000000000001
 31
0.0
  0
LINE
  5
D3
330
CF
100
AcDbEntity
  8
0
  6
Continuous
 62
     0
370
    -2
100
AcDbLine
 10
0.0
 20
0.0
 30
0.0
 11
-0.9659258262890683
 21
0.2588190451025209
 31
0.0
  0
ENDBLK
  5
D1
330
CF
100
AcDbEntity
  8
0
100
AcDbBlockEnd
  0
BLOCK
  5
D5
330
D4
100
AcDbEntity
  8
0
100
AcDbBlockBegin
  2
FXTIP_DOWNARROW_E
 70
     0
 10
0.0
 20
0.0
 30
0.0
  3
FXTIP_DOWNARROW_E
  1

  0
LINE
  5
D7
330
D4
100
AcDbEntity
  8
0
  6
Continuous
 62
     0
370
    -2
100
AcDbLine
 10
0.0
 20
0.0
 30
0.0
 11
-1.0
 21
0.0
 31
0.0
  0
LINE
  5
D8
330
D4
100
AcDbEntity
  8
0
  6
Continuous
 62
     0
370
    -2
100
AcDbLine
 10
0.0
 20
0.0
 30
0.0
 11
-0.9659258262890683
 21
-0.2588190451025207
 31
0.0
  0
ENDBLK
  5
D6
330
D4
100
AcDbEntity
  8
0
100
AcDbBlockEnd
  0
BLOCK
  5
DA
330
D9
100
AcDbEntity
  8
0
100
AcDbBlockBegin
  2
FXTIP_BLACKTRIANGLE_S
 70
     0
 10
0.0
 20
0.0
 30
0.0
  3
FXTIP_BLACKTRIANGLE_S
  1

  0
LINE
  5
DC
330
D9
100
AcDbEntity
  8
0
  6
Continuous
 62
     0
370
    -2
100
AcDbLine
 10
0.0
 20
0.0
 30
0.0
 11
-1.0
 21
0.0000000000000001
 31
0.0
  0
SOLID
  5
DD
330
D9
100
AcDbEntity
  8
0
  6
Continuous
 62
     0
370
    -2
100
AcDbTrace
 10
0.0
 20
0.0
 30
0.0
 11
-0.9659258262890683
 21
-0.2588190451025206
 31
0.0
 12
-0.9659258262890683
 22
0.2588190451025209
 32
0.0
 13
-0.9659258262890683
 23
0.2588190451025209
 33
0.0
  0
ENDBLK
  5
DB
330
D9
100
AcDbEntity
  8
0
100
AcDbBlockEnd
  0
BLOCK
  5
DF
330
DE
100
AcDbEntity
  8
0
100
AcDbBlockBegin
  2
FXTIP_BLACKTRIANGLE_E
 70
     0
 10
0.0
 20
0.0
 30
0.0
  3
FXTIP_BLACKTRIANGLE_E
  1

  0
LINE
  5
E1
330
DE
100
AcDbEntity
  8
0
  6
Continuous
 62
     0
370
    -2
100
AcDbLine
 10
0.0
 20
0.0
 30
0.0
 11
-1.0
 21
0.0
 31
0.0
  0
SOLID
  5
E2
330
DE
100
AcDbEntity
  8
0
  6
Continuous
 62
     0
370
    -2
100
AcDbTrace
 10
0.0
 20
0.0
 30
0.0
 11
-0.9659258262890683
 21
0.2588190451025207
 31
0.0
 12
-0.9659258262890683
 22
-0.2588190451025207
 32
0.0
 13
-0.9659258262890683
 23
-0.2588190451025207
 33
0.0
  0
ENDBLK
  5
E0
330
DE
100
AcDbEntity
  8
0
100
AcDbBlockEnd
  0
BLOCK
  5
1D5
330
1D4
100
AcDbEntity
  8
0
100
AcDbBlockBegin
  2
BLKF021
 70
     0
 10
0.0
 20
0.0
 30
0.0
  3
BLKF021
  1

  0
LINE
  5
1D8
330
1D4
100
AcDbEntity
  8
GR1_01
  6
Continuous
 62
     7
370
    13
100
AcDbLine
 10
752.2220519335906
 20
169.0877257652063
 30
0.0
 11
752.2220531989777
 21
169.0877263978998
 31
0.0
  0
LINE
  5
1D9
330
1D4
100
AcDbEntity
  8
GR1_01
  6
Continuous
 62
     7
370
    13
100
AcDbLine
 10
753.1220517409918
 20
168.9127256689068
 30
0.0
 11
753.4720531989777
 21
169.0877263978998
 31
0.0
  0
LINE
  5
1DA
330
1D4
100
AcDbEntity
  8
GR1_01
  6
Continuous
 62
     7
370
    13
100
AcDbLine
 10
754.3720517409918
 20
168.9127256689068
 30
0.0
 11
754.7220531989777
 21
169.0877263978998
 31
0.0
  0
LINE
  5
1DB
330
1D4
100
AcDbEntity
  8
GR1_01
  6
Continuous
 62
     7
370
    13
100
AcDbLine
 10
755.6220517409918
 20
168.9127256689068
 30
0.0
 11
755.9720531989777
 21
169.0877263978998
 31
0.0
  0
LINE
  5
1DC
330
1D4
100
AcDbEntity
  8
GR1_01
  6
Continuous
 62
     7
370
    13
100
AcDbLine
 10
756.8720517409917
 20
168.9127256689068
 30
0.0
 11
757.2220519335906
 21
169.0877257652062
 31
0.0
  0
LINE
  5
1DD
330
1D4
100
AcDbEntity
  8
GR1_01
  6
Continuous
 62
     7
370
    13
100
AcDbLine
 10
752.3470529880798
 20
169.1502262764009
 30
0.0
 11
752.8470529880798
 21
169.4002262764009
 31
0.0
  0
LINE
  5
1DE
330
1D4
100
AcDbEntity
  8
GR1_01
  6
Continuous
 62
     7
370
    13
100
AcDbLine
 10
753.5970529880798
 20
169.1502262764009
 30
0.0
 11
754.0970529880798
 21
169.4002262764009
 31
0.0
  0
LINE
  5
1DF
330
1D4
100
AcDbEntity
  8
GR1_01
  6
Continuous
 62
     7
370
    13
100
AcDbLine
 10
754.8470529880798
 20
169.1502262764009
 30
0.0
 11
755.3470529880798
 21
169.4002262764009
 31
0.0
  0
LINE
  5
1E0
330
1D4
100
AcDbEntity
  8
GR1_01
  6
Continuous
 62
     7
370
    13
100
AcDbLine
 10
756.0970529880798
 20
169.1502262764009
 30
0.0
 11
756.5970529880798
 21
169.4002262764009
 31
0.0
  0
LINE
  5
1E1
330
1D4
100
AcDbEntity
  8
GR1_01
  6
Continuous
 62
     7
370
    13
100
AcDbLine
 10
752.2220519335906
 20
169.7127257331065
 30
0.0
 11
752.222052777182
 21
169.7127261549021
 31
0.0
  0
LINE
  5
1E2
330
1D4
100
AcDbEntity
  8
GR1_01
  6
Continuous
 62
     7
370
    13
100
AcDbLine
 10
752.972052777182
 20
169.4627261549021
 30
0.0
 11
753.472052777182
 21
169.7127261549021
 31
0.0
  0
LINE
  5
1E3
330
1D4
100
AcDbEntity
  8
GR1_01
  6
Continuous
 62
     7
370
    13
100
AcDbLine
 10
754.222052777182
 20
169.4627261549021
 30
0.0
 11
754.722052777182
 21
169.7127261549021
 31
0.0
  0
LINE
  5
1E4
330
1D4
100
AcDbEntity
  8
GR1_01
  6
Continuous
 62
     7
370
    13
100
AcDbLine
 10
755.472052777182
 20
169.4627261549021
 30
0.0
 11
755.972052777182
 21
169.7127261549021
 31
0.0
  0
LINE
  5
1E5
330
1D4
100
AcDbEntity
  8
GR1_01
  6
Continuous
 62
     7
370
    13
100
AcDbLine
 10
756.722052777182
 20
169.4627261549021
 30
0.0
 11
757.2220519335906
 21
169.7127257331064
 31
0.0
  0
LINE
  5
1E6
330
1D4
100
AcDbEntity
  8
GR1_01
  6
Continuous
 62
     7
370
    13
100
AcDbLine
 10
752.3470525662841
 20
169.7752260334033
 30
0.0
 11
752.8470525662841
 21
170.0252260334033
 31
0.0
  0
LINE
  5
1E7
330
1D4
100
AcDbEntity
  8
GR1_01
  6
Continuous
 62
     7
370
    13
100
AcDbLine
 10
753.5970525662841
 20
169.7752260334033
 30
0.0
 11
754.0970525662841
 21
170.0252260334033
 31
0.0
  0
LINE
  5
1E8
330
1D4
100
AcDbEntity
  8
GR1_01
  6
Continuous
 62
     7
370
    13
100
AcDbLine
 10
754.8470525662841
 20
169.7752260334033
 30
0.0
 11
755.3470525662841
 21
170.0252260334033
 31
0.0
  0
LINE
  5
1E9
330
1D4
100
AcDbEntity
  8
GR1_01
  6
Continuous
 62
     7
370
    13
100
AcDbLine
 10
756.0970525662841
 20
169.7752260334033
 30
0.0
 11
756.5970525662841
 21
170.0252260334033
 31
0.0
  0
LINE
  5
1EA
330
1D4
100
AcDbEntity
  8
GR1_01
  6
Continuous
 62
     7
370
    13
100
AcDbLine
 10
752.2220519335906
 20
170.3377257010067
 30
0.0
 11
752.2220523553863
 21
170.3377259119045
 31
0.0
  0
LINE
  5
1EB
330
1D4
100
AcDbEntity
  8
GR1_01
  6
Continuous
 62
     7
370
    13
100
AcDbLine
 10
752.9720523553863
 20
170.0877259119045
 30
0.0
 11
753.4720523553863
 21
170.3377259119045
 31
0.0
  0
LINE
  5
1EC
330
1D4
100
AcDbEntity
  8
GR1_01
  6
Continuous
 62
     7
370
    13
100
AcDbLine
 10
754.2220523553863
 20
170.0877259119045
 30
0.0
 11
754.7220523553863
 21
170.3377259119045
 31
0.0
  0
LINE
  5
1ED
330
1D4
100
AcDbEntity
  8
GR1_01
  6
Continuous
 62
     7
370
    13
100
AcDbLine
 10
755.4720523553863
 20
170.0877259119045
 30
0.0
 11
755.9720523553863
 21
170.3377259119045
 31
0.0
  0
LINE
  5
1EE
330
1D4
100
AcDbEntity
  8
GR1_01
  6
Continuous
 62
     7
370
    13
100
AcDbLine
 10
756.7220523553863
 20
170.0877259119045
 30
0.0
 11
757.2220519335906
 21
170.3377257010066
 31
0.0
  0
LINE
  5
1EF
330
1D4
100
AcDbEntity
  8
GR1_01
  6
Continuous
 62
     7
370
    13
100
AcDbLine
 10
752.3470521444884
 20
170.4002257904057
 30
0.0
 11
752.4720519014908
 21
170.4627256689068
 31
0.0
  0
LINE
  5
1F0
330
1D4
100
AcDbEntity
  8
GR1_01
  6
Continuous
 62
     7
370
    13
100
AcDbLine
 10
753.5970521444884
 20
170.4002257904057
 30
0.0
 11
753.7220519014908
 21
170.4627256689068
 31
0.0
  0
LINE
  5
1F1
330
1D4
100
AcDbEntity
  8
GR1_01
  6
Continuous
 62
     7
370
    13
100
AcDbLine
 10
754.8470521444884
 20
170.4002257904057
 30
0.0
 11
754.9720519014908
 21
170.4627256689068
 31
0.0
  0
LINE
  5
1F2
330
1D4
100
AcDbEntity
  8
GR1_01
  6
Continuous
 62
     7
370
    13
100
AcDbLine
 10
756.0970521444884
 20
170.4002257904057
 30
0.0
 11
756.2220519014909
 21
170.4627256689068
 31
0.0
  0
LINE
  5
1F3
330
1D4
100
AcDbEntity
  8
GR1_01
  6
Continuous
 62
     7
370
    13
100
AcDbLine
 10
752.3470529880798
 20
169.1502262764009
 30
0.0
 11
752.8220542030681
 21
168.9127256689068
 31
0.0
  0
LINE
  5
1F4
330
1D4
100
AcDbEntity
  8
GR1_01
  6
Continuous
 62
     7
370
    13
100
AcDbLine
 10
753.5970529880798
 20
169.1502262764009
 30
0.0
 11
754.0720542030681
 21
168.9127256689068
 31
0.0
  0
LINE
  5
1F5
330
1D4
100
AcDbEntity
  8
GR1_01
  6
Continuous
 62
     7
370
    13
100
AcDbLine
 10
754.8470529880798
 20
169.1502262764009
 30
0.0
 11
755.3220542030681
 21
168.9127256689068
 31
0.0
  0
LINE
  5
1F6
330
1D4
100
AcDbEntity
  8
GR1_01
  6
Continuous
 62
     7
370
    13
100
AcDbLine
 10
756.0970529880798
 20
169.1502262764009
 30
0.0
 11
756.5720542030681
 21
168.9127256689068
 31
0.0
  0
LINE
  5
1F7
330
1D4
100
AcDbEntity
  8
GR1_01
  6
Continuous
 62
     7
370
    13
100
AcDbLine
 10
752.2220519335906
 20
169.2127265766978
 30
0.0
 11
752.222052777182
 21
169.2127261549021
 31
0.0
  0
LINE
  5
1F8
330
1D4
100
AcDbEntity
  8
GR1_01
  6
Continuous
 62
     7
370
    13
100
AcDbLine
 10
752.972052777182
 20
169.4627261549021
 30
0.0
 11
753.472052777182
 21
169.2127261549021
 31
0.0
  0
LINE
  5
1F9
330
1D4
100
AcDbEntity
  8
GR1_01
  6
Continuous
 62
     7
370
    13
100
AcDbLine
 10
754.222052777182
 20
169.4627261549021
 30
0.0
 11
754.722052777182
 21
169.2127261549021
 31
0.0
  0
LINE
  5
1FA
330
1D4
100
AcDbEntity
  8
GR1_01
  6
Continuous
 62
     7
370
    13
100
AcDbLine
 10
755.472052777182
 20
169.4627261549021
 30
0.0
 11
755.972052777182
 21
169.2127261549021
 31
0.0
  0
LINE
  5
1FB
330
1D4
100
AcDbEntity
  8
GR1_01
  6
Continuous
 62
     7
370
    13
100
AcDbLine
 10
756.722052777182
 20
169.4627261549021
 30
0.0
 11
757.2220519335906
 21
169.2127265766978
 31
0.0
  0
LINE
  5
1FC
330
1D4
100
AcDbEntity
  8
GR1_01
  6
Continuous
 62
     7
370
    13
100
AcDbLine
 10
752.3470525662841
 20
169.7752260334033
 30
0.0
 11
752.8470525662841
 21
169.5252260334033
 31
0.0
  0
LINE
  5
1FD
330
1D4
100
AcDbEntity
  8
GR1_01
  6
Continuous
 62
     7
370
    13
100
AcDbLine
 10
753.5970525662841
 20
169.7752260334033
 30
0.0
 11
754.0970525662841
 21
169.5252260334033
 31
0.0
  0
LINE
  5
1FE
330
1D4
100
AcDbEntity
  8
GR1_01
  6
Continuous
 62
     7
370
    13
100
AcDbLine
 10
754.8470525662841
 20
169.7752260334033
 30
0.0
 11
755.3470525662841
 21
169.5252260334033
 31
0.0
  0
LINE
  5
1FF
330
1D4
100
AcDbEntity
  8
GR1_01
  6
Continuous
 62
     7
370
    13
100
AcDbLine
 10
756.0970525662841
 20
169.7752260334033
 30
0.0
 11
756.5970525662841
 21
169.5252260334033
 31
0.0
  0
LINE
  5
200
330
1D4
100
AcDbEntity
  8
GR1_01
  6
Continuous
 62
     7
370
    13
100
AcDbLine
 10
752.2220519335906
 20
169.8377261228023
 30
0.0
 11
752.2220523553863
 21
169.8377259119045
 31
0.0
  0
LINE
  5
201
330
1D4
100
AcDbEntity
  8
GR1_01
  6
Continuous
 62
     7
370
    13
100
AcDbLine
 10
752.9720523553863
 20
170.0877259119045
 30
0.0
 11
753.4720523553863
 21
169.8377259119045
 31
0.0
  0
LINE
  5
202
330
1D4
100
AcDbEntity
  8
GR1_01
  6
Continuous
 62
     7
370
    13
100
AcDbLine
 10
754.2220523553863
 20
170.0877259119045
 30
0.0
 11
754.7220523553863
 21
169.8377259119045
 31
0.0
  0
LINE
  5
203
330
1D4
100
AcDbEntity
  8
GR1_01
  6
Continuous
 62
     7
370
    13
100
AcDbLine
 10
755.4720523553863
 20
170.0877259119045
 30
0.0
 11
755.9720523553863
 21
169.8377259119045
 31
0.0
  0
LINE
  5
204
330
1D4
100
AcDbEntity
  8
GR1_01
  6
Continuous
 62
     7
370
    13
100
AcDbLine
 10
756.7220523553863
 20
170.0877259119045
 30
0.0
 11
757.2220519335906
 21
169.8377261228023
 31
0.0
  0
LINE
  5
205
330
1D4
100
AcDbEntity
  8
GR1_01
  6
Continuous
 62
     7
370
    13
100
AcDbLine
 10
752.3470521444884
 20
170.4002257904057
 30
0.0
 11
752.8470521444884
 21
170.1502257904057
 31
0.0
  0
LINE
  5
206
330
1D4
100
AcDbEntity
  8
GR1_01
  6
Continuous
 62
     7
370
    13
100
AcDbLine
 10
753.5970521444884
 20
170.4002257904057
 30
0.0
 11
754.0970521444884
 21
170.1502257904057
 31
0.0
  0
LINE
  5
207
330
1D4
100
AcDbEntity
  8
GR1_01
  6
Continuous
 62
     7
370
    13
100
AcDbLine
 10
754.8470521444884
 20
170.4002257904057
 30
0.0
 11
755.3470521444884
 21
170.1502257904057
 31
0.0
  0
LINE
  5
208
330
1D4
100
AcDbEntity
  8
GR1_01
  6
Continuous
 62
     7
370
    13
100
AcDbLine
 10
756.0970521444884
 20
170.4002257904057
 30
0.0
 11
756.5970521444884
 21
170.1502257904057
 31
0.0
  0
LINE
  5
209
330
1D4
100
AcDbEntity
  8
GR1_01
  6
Continuous
 62
     7
370
    13
100
AcDbLine
 10
752.8720517730916
 20
168.9127256689068
 30
0.0
 11
753.3470529880798
 21
169.1502262764009
 31
0.0
  0
LINE
  5
20A
330
1D4
100
AcDbEntity
  8
GR1_01
  6
Continuous
 62
     7
370
    13
100
AcDbLine
 10
754.1220517730916
 20
168.9127256689068
 30
0.0
 11
754.5970529880798
 21
169.1502262764009
 31
0.0
  0
LINE
  5
20B
330
1D4
100
AcDbEntity
  8
GR1_01
  6
Continuous
 62
     7
370
    13
100
AcDbLine
 10
755.3720517730916
 20
168.9127256689068
 30
0.0
 11
755.8470529880798
 21
169.1502262764009
 31
0.0
  0
LINE
  5
20C
330
1D4
100
AcDbEntity
  8
GR1_01
  6
Continuous
 62
     7
370
    13
100
AcDbLine
 10
756.6220517730916
 20
168.9127256689068
 30
0.0
 11
757.0970529880798
 21
169.1502262764009
 31
0.0
  0
LINE
  5
20D
330
1D4
100
AcDbEntity
  8
GR1_01
  6
Continuous
 62
     7
370
    13
100
AcDbLine
 10
752.222052777182
 20
169.2127261549021
 30
0.0
 11
752.722052777182
 21
169.4627261549021
 31
0.0
  0
LINE
  5
20E
330
1D4
100
AcDbEntity
  8
GR1_01
  6
Continuous
 62
     7
370
    13
100
AcDbLine
 10
753.472052777182
 20
169.2127261549021
 30
0.0
 11
753.972052777182
 21
169.4627261549021
 31
0.0
  0
LINE
  5
20F
330
1D4
100
AcDbEntity
  8
GR1_01
  6
Continuous
 62
     7
370
    13
100
AcDbLine
 10
754.722052777182
 20
169.2127261549021
 30
0.0
 11
755.222052777182
 21
169.4627261549021
 31
0.0
  0
LINE
  5
210
330
1D4
100
AcDbEntity
  8
GR1_01
  6
Continuous
 62
     7
370
    13
100
AcDbLine
 10
755.972052777182
 20
169.2127261549021
 30
0.0
 11
756.472052777182
 21
169.4627261549021
 31
0.0
  0
LINE
  5
211
330
1D4
100
AcDbEntity
  8
GR1_01
  6
Continuous
 62
     7
370
    13
100
AcDbLine
 10
752.8470525662841
 20
169.5252260334033
 30
0.0
 11
753.3470525662841
 21
169.7752260334033
 31
0.0
  0
LINE
  5
212
330
1D4
100
AcDbEntity
  8
GR1_01
  6
Continuous
 62
     7
370
    13
100
AcDbLine
 10
754.0970525662841
 20
169.5252260334033
 30
0.0
 11
754.5970525662841
 21
169.7752260334033
 31
0.0
  0
LINE
  5
213
330
1D4
100
AcDbEntity
  8
GR1_01
  6
Continuous
 62
     7
370
    13
100
AcDbLine
 10
755.3470525662841
 20
169.5252260334033
 30
0.0
 11
755.8470525662841
 21
169.7752260334033
 31
0.0
  0
LINE
  5
214
330
1D4
100
AcDbEntity
  8
GR1_01
  6
Continuous
 62
     7
370
    13
100
AcDbLine
 10
756.5970525662841
 20
169.5252260334033
 30
0.0
 11
757.0970525662841
 21
169.7752260334033
 31
0.0
  0
LINE
  5
215
330
1D4
100
AcDbEntity
  8
GR1_01
  6
Continuous
 62
     7
370
    13
100
AcDbLine
 10
752.2220523553863
 20
169.8377259119045
 30
0.0
 11
752.7220523553863
 21
170.0877259119045
 31
0.0
  0
LINE
  5
216
330
1D4
100
AcDbEntity
  8
GR1_01
  6
Continuous
 62
     7
370
    13
100
AcDbLine
 10
753.4720523553863
 20
169.8377259119045
 30
0.0
 11
753.9720523553863
 21
170.0877259119045
 31
0.0
  0
LINE
  5
217
330
1D4
100
AcDbEntity
  8
GR1_01
  6
Continuous
 62
     7
370
    13
100
AcDbLine
 10
754.7220523553863
 20
169.8377259119045
 30
0.0
 11
755.2220523553863
 21
170.0877259119045
 31
0.0
  0
LINE
  5
218
330
1D4
100
AcDbEntity
  8
GR1_01
  6
Continuous
 62
     7
370
    13
100
AcDbLine
 10
755.9720523553863
 20
169.8377259119045
 30
0.0
 11
756.4720523553863
 21
170.0877259119045
 31
0.0
  0
LINE
  5
219
330
1D4
100
AcDbEntity
  8
GR1_01
  6
Continuous
 62
     7
370
    13
100
AcDbLine
 10
752.8470521444884
 20
170.1502257904057
 30
0.0
 11
753.3470521444884
 21
170.4002257904057
 31
0.0
  0
LINE
  5
21A
330
1D4
100
AcDbEntity
  8
GR1_01
  6
Continuous
 62
     7
370
    13
100
AcDbLine
 10
754.0970521444884
 20
170.1502257904057
 30
0.0
 11
754.5970521444884
 21
170.4002257904057
 31
0.0
  0
LINE
  5
21B
330
1D4
100
AcDbEntity
  8
GR1_01
  6
Continuous
 62
     7
370
    13
100
AcDbLine
 10
755.3470521444884
 20
170.1502257904057
 30
0.0
 11
755.8470521444884
 21
170.4002257904057
 31
0.0
  0
LINE
  5
21C
330
1D4
100
AcDbEntity
  8
GR1_01
  6
Continuous
 62
     7
370
    13
100
AcDbLine
 10
756.5970521444884
 20
170.1502257904057
 30
0.0
 11
757.0970521444884
 21
170.4002257904057
 31
0.0
  0
LINE
  5
21D
330
1D4
100
AcDbEntity
  8
GR1_01
  6
Continuous
 62
     7
370
    13
100
AcDbLine
 10
752.2220531989777
 20
169.0877263978998
 30
0.0
 11
752.5720546569636
 21
168.9127256689068
 31
0.0
  0
LINE
  5
21E
330
1D4
100
AcDbEntity
  8
GR1_01
  6
Continuous
 62
     7
370
    13
100
AcDbLine
 10
753.4720531989777
 20
169.0877263978998
 30
0.0
 11
753.8220546569636
 21
168.9127256689068
 31
0.0
  0
LINE
  5
21F
330
1D4
100
AcDbEntity
  8
GR1_01
  6
Continuous
 62
     7
370
    13
100
AcDbLine
 10
754.7220531989777
 20
169.0877263978998
 30
0.0
 11
755.0720546569636
 21
168.9127256689068
 31
0.0
  0
LINE
  5
220
330
1D4
100
AcDbEntity
  8
GR1_01
  6
Continuous
 62
     7
370
    13
100
AcDbLine
 10
755.9720531989777
 20
169.0877263978998
 30
0.0
 11
756.3220546569636
 21
168.9127256689068
 31
0.0
  0
LINE
  5
221
330
1D4
100
AcDbEntity
  8
GR1_01
  6
Continuous
 62
     7
370
    13
100
AcDbLine
 10
752.8470529880798
 20
169.4002262764009
 30
0.0
 11
753.3470529880798
 21
169.1502262764009
 31
0.0
  0
LINE
  5
222
330
1D4
100
AcDbEntity
  8
GR1_01
  6
Continuous
 62
     7
370
    13
100
AcDbLine
 10
754.0970529880798
 20
169.4002262764009
 30
0.0
 11
754.5970529880798
 21
169.1502262764009
 31
0.0
  0
LINE
  5
223
330
1D4
100
AcDbEntity
  8
GR1_01
  6
Continuous
 62
     7
370
    13
100
AcDbLine
 10
755.3470529880798
 20
169.4002262764009
 30
0.0
 11
755.8470529880798
 21
169.1502262764009
 31
0.0
  0
LINE
  5
224
330
1D4
100
AcDbEntity
  8
GR1_01
  6
Continuous
 62
     7
370
    13
100
AcDbLine
 10
756.5970529880798
 20
169.4002262764009
 30
0.0
 11
757.0970529880798
 21
169.1502262764009
 31
0.0
  0
LINE
  5
225
330
1D4
100
AcDbEntity
  8
GR1_01
  6
Continuous
 62
     7
370
    13
100
AcDbLine
 10
752.222052777182
 20
169.7127261549021
 30
0.0
 11
752.722052777182
 21
169.4627261549021
 31
0.0
  0
LINE
  5
226
330
1D4
100
AcDbEntity
  8
GR1_01
  6
Continuous
 62
     7
370
    13
100
AcDbLine
 10
753.472052777182
 20
169.7127261549021
 30
0.0
 11
753.972052777182
 21
169.4627261549021
 31
0.0
  0
LINE
  5
227
330
1D4
100
AcDbEntity
  8
GR1_01
  6
Continuous
 62
     7
370
    13
100
AcDbLine
 10
754.722052777182
 20
169.7127261549021
 30
0.0
 11
755.222052777182
 21
169.4627261549021
 31
0.0
  0
LINE
  5
228
330
1D4
100
AcDbEntity
  8
GR1_01
  6
Continuous
 62
     7
370
    13
100
AcDbLine
 10
755.972052777182
 20
169.7127261549021
 30
0.0
 11
756.472052777182
 21
169.4627261549021
 31
0.0
  0
LINE
  5
229
330
1D4
100
AcDbEntity
  8
GR1_01
  6
Continuous
 62
     7
370
    13
100
AcDbLine
 10
752.8470525662841
 20
170.0252260334033
 30
0.0
 11
753.3470525662841
 21
169.7752260334033
 31
0.0
  0
LINE
  5
22A
330
1D4
100
AcDbEntity
  8
GR1_01
  6
Continuous
 62
     7
370
    13
100
AcDbLine
 10
754.0970525662841
 20
170.0252260334033
 30
0.0
 11
754.5970525662841
 21
169.7752260334033
 31
0.0
  0
LINE
  5
22B
330
1D4
100
AcDbEntity
  8
GR1_01
  6
Continuous
 62
     7
370
    13
100
AcDbLine
 10
755.3470525662841
 20
170.0252260334033
 30
0.0
 11
755.8470525662841
 21
169.7752260334033
 31
0.0
  0
LINE
  5
22C
330
1D4
100
AcDbEntity
  8
GR1_01
  6
Continuous
 62
     7
370
    13
100
AcDbLine
 10
756.5970525662841
 20
170.0252260334033
 30
0.0
 11
757.0970525662841
 21
169.7752260334033
 31
0.0
  0
LINE
  5
22D
330
1D4
100
AcDbEntity
  8
GR1_01
  6
Continuous
 62
     7
370
    13
100
AcDbLine
 10
752.2220523553863
 20
170.3377259119045
 30
0.0
 11
752.7220523553863
 21
170.0877259119045
 31
0.0
  0
LINE
  5
22E
330
1D4
100
AcDbEntity
  8
GR1_01
  6
Continuous
 62
     7
370
    13
100
AcDbLine
 10
753.4720523553863
 20
170.3377259119045
 30
0.0
 11
753.9720523553863
 21
170.0877259119045
 31
0.0
  0
LINE
  5
22F
330
1D4
100
AcDbEntity
  8
GR1_01
  6
Continuous
 62
     7
370
    13
100
AcDbLine
 10
754.7220523553863
 20
170.3377259119045
 30
0.0
 11
755.2220523553863
 21
170.0877259119045
 31
0.0
  0
LINE
  5
230
330
1D4
100
AcDbEntity
  8
GR1_01
  6
Continuous
 62
     7
370
    13
100
AcDbLine
 10
755.9720523553863
 20
170.3377259119045
 30
0.0
 11
756.4720523553863
 21
170.0877259119045
 31
0.0
  0
LINE
  5
231
330
1D4
100
AcDbEntity
  8
GR1_01
  6
Continuous
 62
     7
370
    13
100
AcDbLine
 10
753.2220523874862
 20
170.4627256689068
 30
0.0
 11
753.3470521444884
 21
170.4002257904057
 31
0.0
  0
LINE
  5
232
330
1D4
100
AcDbEntity
  8
GR1_01
  6
Continuous
 62
     7
370
    13
100
AcDbLine
 10
754.4720523874862
 20
170.4627256689068
 30
0.0
 11
754.5970521444884
 21
170.4002257904057
 31
0.0
  0
LINE
  5
233
330
1D4
100
AcDbEntity
  8
GR1_01
  6
Continuous
 62
     7
370
    13
100
AcDbLine
 10
755.7220523874862
 20
170.4627256689068
 30
0.0
 11
755.8470521444884
 21
170.4002257904057
 31
0.0
  0
LINE
  5
234
330
1D4
100
AcDbEntity
  8
GR1_01
  6
Continuous
 62
     7
370
    13
100
AcDbLine
 10
756.9720523874862
 20
170.4627256689068
 30
0.0
 11
757.0970521444884
 21
170.4002257904057
 31
0.0
  0
ENDBLK
  5
1D6
330
1D4
100
AcDbEntity
  8
0
100
AcDbBlockEnd
  0
BLOCK
  5
242
330
241
100
AcDbEntity
  8
0
100
AcDbBlockBegin
  2
BLKF022
 70
     0
 10
0.0
 20
0.0
 30
0.0
  3
BLKF022
  1

  0
LINE
  5
245
330
241
100
AcDbEntity
  8
GR1_01
  6
Continuous
 62
     7
370
    13
100
AcDbLine
 10
707.4969608787635
 20
169.0877257652062
 30
0.0
 11
707.4969621441505
 21
169.0877263978998
 31
0.0
  0
LINE
  5
246
330
241
100
AcDbEntity
  8
GR1_01
  6
Continuous
 62
     7
370
    13
100
AcDbLine
 10
708.3969606861647
 20
168.9127256689068
 30
0.0
 11
708.7469621441505
 21
169.0877263978998
 31
0.0
  0
LINE
  5
247
330
241
100
AcDbEntity
  8
GR1_01
  6
Continuous
 62
     7
370
    13
100
AcDbLine
 10
709.6469606861647
 20
168.9127256689068
 30
0.0
 11
709.9969621441505
 21
169.0877263978998
 31
0.0
  0
LINE
  5
248
330
241
100
AcDbEntity
  8
GR1_01
  6
Continuous
 62
     7
370
    13
100
AcDbLine
 10
710.8969606861647
 20
168.9127256689068
 30
0.0
 11
711.2469621441505
 21
169.0877263978998
 31
0.0
  0
LINE
  5
249
330
241
100
AcDbEntity
  8
GR1_01
  6
Continuous
 62
     7
370
    13
100
AcDbLine
 10
712.1469606861647
 20
168.9127256689068
 30
0.0
 11
712.4969608787634
 21
169.0877257652062
 31
0.0
  0
LINE
  5
24A
330
241
100
AcDbEntity
  8
GR1_01
  6
Continuous
 62
     7
370
    13
100
AcDbLine
 10
707.6219619332527
 20
169.1502262764009
 30
0.0
 11
708.1219619332527
 21
169.4002262764009
 31
0.0
  0
LINE
  5
24B
330
241
100
AcDbEntity
  8
GR1_01
  6
Continuous
 62
     7
370
    13
100
AcDbLine
 10
708.8719619332527
 20
169.1502262764009
 30
0.0
 11
709.3719619332527
 21
169.4002262764009
 31
0.0
  0
LINE
  5
24C
330
241
100
AcDbEntity
  8
GR1_01
  6
Continuous
 62
     7
370
    13
100
AcDbLine
 10
710.1219619332527
 20
169.1502262764009
 30
0.0
 11
710.6219619332527
 21
169.4002262764009
 31
0.0
  0
LINE
  5
24D
330
241
100
AcDbEntity
  8
GR1_01
  6
Continuous
 62
     7
370
    13
100
AcDbLine
 10
711.3719619332527
 20
169.1502262764009
 30
0.0
 11
711.8719619332527
 21
169.4002262764009
 31
0.0
  0
LINE
  5
24E
330
241
100
AcDbEntity
  8
GR1_01
  6
Continuous
 62
     7
370
    13
100
AcDbLine
 10
707.4969608787635
 20
169.7127257331065
 30
0.0
 11
707.4969617223549
 21
169.7127261549021
 31
0.0
  0
LINE
  5
24F
330
241
100
AcDbEntity
  8
GR1_01
  6
Continuous
 62
     7
370
    13
100
AcDbLine
 10
708.2469617223549
 20
169.4627261549021
 30
0.0
 11
708.7469617223549
 21
169.7127261549021
 31
0.0
  0
LINE
  5
250
330
241
100
AcDbEntity
  8
GR1_01
  6
Continuous
 62
     7
370
    13
100
AcDbLine
 10
709.4969617223549
 20
169.4627261549021
 30
0.0
 11
709.9969617223549
 21
169.7127261549021
 31
0.0
  0
LINE
  5
251
330
241
100
AcDbEntity
  8
GR1_01
  6
Continuous
 62
     7
370
    13
100
AcDbLine
 10
710.7469617223549
 20
169.4627261549021
 30
0.0
 11
711.2469617223549
 21
169.7127261549021
 31
0.0
  0
LINE
  5
252
330
241
100
AcDbEntity
  8
GR1_01
  6
Continuous
 62
     7
370
    13
100
AcDbLine
 10
711.9969617223549
 20
169.4627261549021
 30
0.0
 11
712.4969608787634
 21
169.7127257331064
 31
0.0
  0
LINE
  5
253
330
241
100
AcDbEntity
  8
GR1_01
  6
Continuous
 62
     7
370
    13
100
AcDbLine
 10
707.6219615114569
 20
169.7752260334033
 30
0.0
 11
708.1219615114569
 21
170.0252260334033
 31
0.0
  0
LINE
  5
254
330
241
100
AcDbEntity
  8
GR1_01
  6
Continuous
 62
     7
370
    13
100
AcDbLine
 10
708.8719615114569
 20
169.7752260334033
 30
0.0
 11
709.3719615114569
 21
170.0252260334033
 31
0.0
  0
LINE
  5
255
330
241
100
AcDbEntity
  8
GR1_01
  6
Continuous
 62
     7
370
    13
100
AcDbLine
 10
710.1219615114569
 20
169.7752260334033
 30
0.0
 11
710.6219615114569
 21
170.0252260334033
 31
0.0
  0
LINE
  5
256
330
241
100
AcDbEntity
  8
GR1_01
  6
Continuous
 62
     7
370
    13
100
AcDbLine
 10
711.3719615114569
 20
169.7752260334033
 30
0.0
 11
711.8719615114569
 21
170.0252260334033
 31
0.0
  0
LINE
  5
257
330
241
100
AcDbEntity
  8
GR1_01
  6
Continuous
 62
     7
370
    13
100
AcDbLine
 10
707.4969608787634
 20
170.3377257010066
 30
0.0
 11
707.4969613005592
 21
170.3377259119045
 31
0.0
  0
LINE
  5
258
330
241
100
AcDbEntity
  8
GR1_01
  6
Continuous
 62
     7
370
    13
100
AcDbLine
 10
708.2469613005592
 20
170.0877259119045
 30
0.0
 11
708.7469613005592
 21
170.3377259119045
 31
0.0
  0
LINE
  5
259
330
241
100
AcDbEntity
  8
GR1_01
  6
Continuous
 62
     7
370
    13
100
AcDbLine
 10
709.4969613005592
 20
170.0877259119045
 30
0.0
 11
709.9969613005592
 21
170.3377259119045
 31
0.0
  0
LINE
  5
25A
330
241
100
AcDbEntity
  8
GR1_01
  6
Continuous
 62
     7
370
    13
100
AcDbLine
 10
710.7469613005592
 20
170.0877259119045
 30
0.0
 11
711.2469613005592
 21
170.3377259119045
 31
0.0
  0
LINE
  5
25B
330
241
100
AcDbEntity
  8
GR1_01
  6
Continuous
 62
     7
370
    13
100
AcDbLine
 10
711.9969613005592
 20
170.0877259119045
 30
0.0
 11
712.4969608787634
 21
170.3377257010065
 31
0.0
  0
LINE
  5
25C
330
241
100
AcDbEntity
  8
GR1_01
  6
Continuous
 62
     7
370
    13
100
AcDbLine
 10
707.6219610896613
 20
170.4002257904057
 30
0.0
 11
707.7469608466636
 21
170.4627256689068
 31
0.0
  0
LINE
  5
25D
330
241
100
AcDbEntity
  8
GR1_01
  6
Continuous
 62
     7
370
    13
100
AcDbLine
 10
708.8719610896613
 20
170.4002257904057
 30
0.0
 11
708.9969608466636
 21
170.4627256689068
 31
0.0
  0
LINE
  5
25E
330
241
100
AcDbEntity
  8
GR1_01
  6
Continuous
 62
     7
370
    13
100
AcDbLine
 10
710.1219610896613
 20
170.4002257904057
 30
0.0
 11
710.2469608466636
 21
170.4627256689068
 31
0.0
  0
LINE
  5
25F
330
241
100
AcDbEntity
  8
GR1_01
  6
Continuous
 62
     7
370
    13
100
AcDbLine
 10
711.3719610896613
 20
170.4002257904057
 30
0.0
 11
711.4969608466636
 21
170.4627256689068
 31
0.0
  0
LINE
  5
260
330
241
100
AcDbEntity
  8
GR1_01
  6
Continuous
 62
     7
370
    13
100
AcDbLine
 10
707.6219619332527
 20
169.1502262764009
 30
0.0
 11
708.096963148241
 21
168.9127256689068
 31
0.0
  0
LINE
  5
261
330
241
100
AcDbEntity
  8
GR1_01
  6
Continuous
 62
     7
370
    13
100
AcDbLine
 10
708.8719619332527
 20
169.1502262764009
 30
0.0
 11
709.3469631482409
 21
168.9127256689068
 31
0.0
  0
LINE
  5
262
330
241
100
AcDbEntity
  8
GR1_01
  6
Continuous
 62
     7
370
    13
100
AcDbLine
 10
710.1219619332527
 20
169.1502262764009
 30
0.0
 11
710.5969631482409
 21
168.9127256689068
 31
0.0
  0
LINE
  5
263
330
241
100
AcDbEntity
  8
GR1_01
  6
Continuous
 62
     7
370
    13
100
AcDbLine
 10
711.3719619332527
 20
169.1502262764009
 30
0.0
 11
711.8469631482409
 21
168.9127256689068
 31
0.0
  0
LINE
  5
264
330
241
100
AcDbEntity
  8
GR1_01
  6
Continuous
 62
     7
370
    13
100
AcDbLine
 10
707.4969608787635
 20
169.2127265766977
 30
0.0
 11
707.4969617223549
 21
169.2127261549021
 31
0.0
  0
LINE
  5
265
330
241
100
AcDbEntity
  8
GR1_01
  6
Continuous
 62
     7
370
    13
100
AcDbLine
 10
708.2469617223549
 20
169.4627261549021
 30
0.0
 11
708.7469617223549
 21
169.2127261549021
 31
0.0
  0
LINE
  5
266
330
241
100
AcDbEntity
  8
GR1_01
  6
Continuous
 62
     7
370
    13
100
AcDbLine
 10
709.4969617223549
 20
169.4627261549021
 30
0.0
 11
709.9969617223549
 21
169.2127261549021
 31
0.0
  0
LINE
  5
267
330
241
100
AcDbEntity
  8
GR1_01
  6
Continuous
 62
     7
370
    13
100
AcDbLine
 10
710.7469617223549
 20
169.4627261549021
 30
0.0
 11
711.2469617223549
 21
169.2127261549021
 31
0.0
  0
LINE
  5
268
330
241
100
AcDbEntity
  8
GR1_01
  6
Continuous
 62
     7
370
    13
100
AcDbLine
 10
711.9969617223549
 20
169.4627261549021
 30
0.0
 11
712.4969608787634
 21
169.2127265766978
 31
0.0
  0
LINE
  5
269
330
241
100
AcDbEntity
  8
GR1_01
  6
Continuous
 62
     7
370
    13
100
AcDbLine
 10
707.6219615114569
 20
169.7752260334033
 30
0.0
 11
708.1219615114569
 21
169.5252260334033
 31
0.0
  0
LINE
  5
26A
330
241
100
AcDbEntity
  8
GR1_01
  6
Continuous
 62
     7
370
    13
100
AcDbLine
 10
708.8719615114569
 20
169.7752260334033
 30
0.0
 11
709.3719615114569
 21
169.5252260334033
 31
0.0
  0
LINE
  5
26B
330
241
100
AcDbEntity
  8
GR1_01
  6
Continuous
 62
     7
370
    13
100
AcDbLine
 10
710.1219615114569
 20
169.7752260334033
 30
0.0
 11
710.6219615114569
 21
169.5252260334033
 31
0.0
  0
LINE
  5
26C
330
241
100
AcDbEntity
  8
GR1_01
  6
Continuous
 62
     7
370
    13
100
AcDbLine
 10
711.3719615114569
 20
169.7752260334033
 30
0.0
 11
711.8719615114569
 21
169.5252260334033
 31
0.0
  0
LINE
  5
26D
330
241
100
AcDbEntity
  8
GR1_01
  6
Continuous
 62
     7
370
    13
100
AcDbLine
 10
707.4969608787635
 20
169.8377261228024
 30
0.0
 11
707.4969613005592
 21
169.8377259119045
 31
0.0
  0
LINE
  5
26E
330
241
100
AcDbEntity
  8
GR1_01
  6
Continuous
 62
     7
370
    13
100
AcDbLine
 10
708.2469613005592
 20
170.0877259119045
 30
0.0
 11
708.7469613005592
 21
169.8377259119045
 31
0.0
  0
LINE
  5
26F
330
241
100
AcDbEntity
  8
GR1_01
  6
Continuous
 62
     7
370
    13
100
AcDbLine
 10
709.4969613005592
 20
170.0877259119045
 30
0.0
 11
709.9969613005592
 21
169.8377259119045
 31
0.0
  0
LINE
  5
270
330
241
100
AcDbEntity
  8
GR1_01
  6
Continuous
 62
     7
370
    13
100
AcDbLine
 10
710.7469613005592
 20
170.0877259119045
 30
0.0
 11
711.2469613005592
 21
169.8377259119045
 31
0.0
  0
LINE
  5
271
330
241
100
AcDbEntity
  8
GR1_01
  6
Continuous
 62
     7
370
    13
100
AcDbLine
 10
711.9969613005592
 20
170.0877259119045
 30
0.0
 11
712.4969608787634
 21
169.8377261228024
 31
0.0
  0
LINE
  5
272
330
241
100
AcDbEntity
  8
GR1_01
  6
Continuous
 62
     7
370
    13
100
AcDbLine
 10
707.6219610896613
 20
170.4002257904057
 30
0.0
 11
708.1219610896613
 21
170.1502257904057
 31
0.0
  0
LINE
  5
273
330
241
100
AcDbEntity
  8
GR1_01
  6
Continuous
 62
     7
370
    13
100
AcDbLine
 10
708.8719610896613
 20
170.4002257904057
 30
0.0
 11
709.3719610896613
 21
170.1502257904057
 31
0.0
  0
LINE
  5
274
330
241
100
AcDbEntity
  8
GR1_01
  6
Continuous
 62
     7
370
    13
100
AcDbLine
 10
710.1219610896613
 20
170.4002257904057
 30
0.0
 11
710.6219610896613
 21
170.1502257904057
 31
0.0
  0
LINE
  5
275
330
241
100
AcDbEntity
  8
GR1_01
  6
Continuous
 62
     7
370
    13
100
AcDbLine
 10
711.3719610896613
 20
170.4002257904057
 30
0.0
 11
711.8719610896613
 21
170.1502257904057
 31
0.0
  0
LINE
  5
276
330
241
100
AcDbEntity
  8
GR1_01
  6
Continuous
 62
     7
370
    13
100
AcDbLine
 10
708.1469607182644
 20
168.9127256689068
 30
0.0
 11
708.6219619332527
 21
169.1502262764009
 31
0.0
  0
LINE
  5
277
330
241
100
AcDbEntity
  8
GR1_01
  6
Continuous
 62
     7
370
    13
100
AcDbLine
 10
709.3969607182644
 20
168.9127256689068
 30
0.0
 11
709.8719619332527
 21
169.1502262764009
 31
0.0
  0
LINE
  5
278
330
241
100
AcDbEntity
  8
GR1_01
  6
Continuous
 62
     7
370
    13
100
AcDbLine
 10
710.6469607182644
 20
168.9127256689068
 30
0.0
 11
711.1219619332527
 21
169.1502262764009
 31
0.0
  0
LINE
  5
279
330
241
100
AcDbEntity
  8
GR1_01
  6
Continuous
 62
     7
370
    13
100
AcDbLine
 10
711.8969607182644
 20
168.9127256689068
 30
0.0
 11
712.3719619332527
 21
169.1502262764009
 31
0.0
  0
LINE
  5
27A
330
241
100
AcDbEntity
  8
GR1_01
  6
Continuous
 62
     7
370
    13
100
AcDbLine
 10
707.4969617223549
 20
169.2127261549021
 30
0.0
 11
707.9969617223549
 21
169.4627261549021
 31
0.0
  0
LINE
  5
27B
330
241
100
AcDbEntity
  8
GR1_01
  6
Continuous
 62
     7
370
    13
100
AcDbLine
 10
708.7469617223549
 20
169.2127261549021
 30
0.0
 11
709.2469617223549
 21
169.4627261549021
 31
0.0
  0
LINE
  5
27C
330
241
100
AcDbEntity
  8
GR1_01
  6
Continuous
 62
     7
370
    13
100
AcDbLine
 10
709.9969617223549
 20
169.2127261549021
 30
0.0
 11
710.4969617223549
 21
169.4627261549021
 31
0.0
  0
LINE
  5
27D
330
241
100
AcDbEntity
  8
GR1_01
  6
Continuous
 62
     7
370
    13
100
AcDbLine
 10
711.2469617223549
 20
169.2127261549021
 30
0.0
 11
711.7469617223549
 21
169.4627261549021
 31
0.0
  0
LINE
  5
27E
330
241
100
AcDbEntity
  8
GR1_01
  6
Continuous
 62
     7
370
    13
100
AcDbLine
 10
708.1219615114569
 20
169.5252260334033
 30
0.0
 11
708.6219615114569
 21
169.7752260334033
 31
0.0
  0
LINE
  5
27F
330
241
100
AcDbEntity
  8
GR1_01
  6
Continuous
 62
     7
370
    13
100
AcDbLine
 10
709.3719615114569
 20
169.5252260334033
 30
0.0
 11
709.8719615114569
 21
169.7752260334033
 31
0.0
  0
LINE
  5
280
330
241
100
AcDbEntity
  8
GR1_01
  6
Continuous
 62
     7
370
    13
100
AcDbLine
 10
710.6219615114569
 20
169.5252260334033
 30
0.0
 11
711.1219615114569
 21
169.7752260334033
 31
0.0
  0
LINE
  5
281
330
241
100
AcDbEntity
  8
GR1_01
  6
Continuous
 62
     7
370
    13
100
AcDbLine
 10
711.8719615114569
 20
169.5252260334033
 30
0.0
 11
712.3719615114569
 21
169.7752260334033
 31
0.0
  0
LINE
  5
282
330
241
100
AcDbEntity
  8
GR1_01
  6
Continuous
 62
     7
370
    13
100
AcDbLine
 10
707.4969613005592
 20
169.8377259119045
 30
0.0
 11
707.9969613005592
 21
170.0877259119045
 31
0.0
  0
LINE
  5
283
330
241
100
AcDbEntity
  8
GR1_01
  6
Continuous
 62
     7
370
    13
100
AcDbLine
 10
708.7469613005592
 20
169.8377259119045
 30
0.0
 11
709.2469613005592
 21
170.0877259119045
 31
0.0
  0
LINE
  5
284
330
241
100
AcDbEntity
  8
GR1_01
  6
Continuous
 62
     7
370
    13
100
AcDbLine
 10
709.9969613005592
 20
169.8377259119045
 30
0.0
 11
710.4969613005592
 21
170.0877259119045
 31
0.0
  0
LINE
  5
285
330
241
100
AcDbEntity
  8
GR1_01
  6
Continuous
 62
     7
370
    13
100
AcDbLine
 10
711.2469613005592
 20
169.8377259119045
 30
0.0
 11
711.7469613005592
 21
170.0877259119045
 31
0.0
  0
LINE
  5
286
330
241
100
AcDbEntity
  8
GR1_01
  6
Continuous
 62
     7
370
    13
100
AcDbLine
 10
708.1219610896613
 20
170.1502257904057
 30
0.0
 11
708.6219610896613
 21
170.4002257904057
 31
0.0
  0
LINE
  5
287
330
241
100
AcDbEntity
  8
GR1_01
  6
Continuous
 62
     7
370
    13
100
AcDbLine
 10
709.3719610896613
 20
170.1502257904057
 30
0.0
 11
709.8719610896613
 21
170.4002257904057
 31
0.0
  0
LINE
  5
288
330
241
100
AcDbEntity
  8
GR1_01
  6
Continuous
 62
     7
370
    13
100
AcDbLine
 10
710.6219610896613
 20
170.1502257904057
 30
0.0
 11
711.1219610896613
 21
170.4002257904057
 31
0.0
  0
LINE
  5
289
330
241
100
AcDbEntity
  8
GR1_01
  6
Continuous
 62
     7
370
    13
100
AcDbLine
 10
711.8719610896613
 20
170.1502257904057
 30
0.0
 11
712.3719610896613
 21
170.4002257904057
 31
0.0
  0
LINE
  5
28A
330
241
100
AcDbEntity
  8
GR1_01
  6
Continuous
 62
     7
370
    13
100
AcDbLine
 10
707.4969621441505
 20
169.0877263978998
 30
0.0
 11
707.8469636021364
 21
168.9127256689068
 31
0.0
  0
LINE
  5
28B
330
241
100
AcDbEntity
  8
GR1_01
  6
Continuous
 62
     7
370
    13
100
AcDbLine
 10
708.7469621441505
 20
169.0877263978998
 30
0.0
 11
709.0969636021364
 21
168.9127256689068
 31
0.0
  0
LINE
  5
28C
330
241
100
AcDbEntity
  8
GR1_01
  6
Continuous
 62
     7
370
    13
100
AcDbLine
 10
709.9969621441505
 20
169.0877263978998
 30
0.0
 11
710.3469636021364
 21
168.9127256689068
 31
0.0
  0
LINE
  5
28D
330
241
100
AcDbEntity
  8
GR1_01
  6
Continuous
 62
     7
370
    13
100
AcDbLine
 10
711.2469621441505
 20
169.0877263978998
 30
0.0
 11
711.5969636021364
 21
168.9127256689068
 31
0.0
  0
LINE
  5
28E
330
241
100
AcDbEntity
  8
GR1_01
  6
Continuous
 62
     7
370
    13
100
AcDbLine
 10
708.1219619332527
 20
169.4002262764009
 30
0.0
 11
708.6219619332527
 21
169.1502262764009
 31
0.0
  0
LINE
  5
28F
330
241
100
AcDbEntity
  8
GR1_01
  6
Continuous
 62
     7
370
    13
100
AcDbLine
 10
709.3719619332527
 20
169.4002262764009
 30
0.0
 11
709.8719619332527
 21
169.1502262764009
 31
0.0
  0
LINE
  5
290
330
241
100
AcDbEntity
  8
GR1_01
  6
Continuous
 62
     7
370
    13
100
AcDbLine
 10
710.6219619332527
 20
169.4002262764009
 30
0.0
 11
711.1219619332527
 21
169.1502262764009
 31
0.0
  0
LINE
  5
291
330
241
100
AcDbEntity
  8
GR1_01
  6
Continuous
 62
     7
370
    13
100
AcDbLine
 10
711.8719619332527
 20
169.4002262764009
 30
0.0
 11
712.3719619332527
 21
169.1502262764009
 31
0.0
  0
LINE
  5
292
330
241
100
AcDbEntity
  8
GR1_01
  6
Continuous
 62
     7
370
    13
100
AcDbLine
 10
707.4969617223549
 20
169.7127261549021
 30
0.0
 11
707.9969617223549
 21
169.4627261549021
 31
0.0
  0
LINE
  5
293
330
241
100
AcDbEntity
  8
GR1_01
  6
Continuous
 62
     7
370
    13
100
AcDbLine
 10
708.7469617223549
 20
169.7127261549021
 30
0.0
 11
709.2469617223549
 21
169.4627261549021
 31
0.0
  0
LINE
  5
294
330
241
100
AcDbEntity
  8
GR1_01
  6
Continuous
 62
     7
370
    13
100
AcDbLine
 10
709.9969617223549
 20
169.7127261549021
 30
0.0
 11
710.4969617223549
 21
169.4627261549021
 31
0.0
  0
LINE
  5
295
330
241
100
AcDbEntity
  8
GR1_01
  6
Continuous
 62
     7
370
    13
100
AcDbLine
 10
711.2469617223549
 20
169.7127261549021
 30
0.0
 11
711.7469617223549
 21
169.4627261549021
 31
0.0
  0
LINE
  5
296
330
241
100
AcDbEntity
  8
GR1_01
  6
Continuous
 62
     7
370
    13
100
AcDbLine
 10
708.1219615114569
 20
170.0252260334033
 30
0.0
 11
708.6219615114569
 21
169.7752260334033
 31
0.0
  0
LINE
  5
297
330
241
100
AcDbEntity
  8
GR1_01
  6
Continuous
 62
     7
370
    13
100
AcDbLine
 10
709.3719615114569
 20
170.0252260334033
 30
0.0
 11
709.8719615114569
 21
169.7752260334033
 31
0.0
  0
LINE
  5
298
330
241
100
AcDbEntity
  8
GR1_01
  6
Continuous
 62
     7
370
    13
100
AcDbLine
 10
710.6219615114569
 20
170.0252260334033
 30
0.0
 11
711.1219615114569
 21
169.7752260334033
 31
0.0
  0
LINE
  5
299
330
241
100
AcDbEntity
  8
GR1_01
  6
Continuous
 62
     7
370
    13
100
AcDbLine
 10
711.8719615114569
 20
170.0252260334033
 30
0.0
 11
712.3719615114569
 21
169.7752260334033
 31
0.0
  0
LINE
  5
29A
330
241
100
AcDbEntity
  8
GR1_01
  6
Continuous
 62
     7
370
    13
100
AcDbLine
 10
707.4969613005592
 20
170.3377259119045
 30
0.0
 11
707.9969613005592
 21
170.0877259119045
 31
0.0
  0
LINE
  5
29B
330
241
100
AcDbEntity
  8
GR1_01
  6
Continuous
 62
     7
370
    13
100
AcDbLine
 10
708.7469613005592
 20
170.3377259119045
 30
0.0
 11
709.2469613005592
 21
170.0877259119045
 31
0.0
  0
LINE
  5
29C
330
241
100
AcDbEntity
  8
GR1_01
  6
Continuous
 62
     7
370
    13
100
AcDbLine
 10
709.9969613005592
 20
170.3377259119045
 30
0.0
 11
710.4969613005592
 21
170.0877259119045
 31
0.0
  0
LINE
  5
29D
330
241
100
AcDbEntity
  8
GR1_01
  6
Continuous
 62
     7
370
    13
100
AcDbLine
 10
711.2469613005592
 20
170.3377259119045
 30
0.0
 11
711.7469613005592
 21
170.0877259119045
 31
0.0
  0
LINE
  5
29E
330
241
100
AcDbEntity
  8
GR1_01
  6
Continuous
 62
     7
370
    13
100
AcDbLine
 10
708.496961332659
 20
170.4627256689068
 30
0.0
 11
708.6219610896613
 21
170.4002257904057
 31
0.0
  0
LINE
  5
29F
330
241
100
AcDbEntity
  8
GR1_01
  6
Continuous
 62
     7
370
    13
100
AcDbLine
 10
709.746961332659
 20
170.4627256689068
 30
0.0
 11
709.8719610896613
 21
170.4002257904057
 31
0.0
  0
LINE
  5
2A0
330
241
100
AcDbEntity
  8
GR1_01
  6
Continuous
 62
     7
370
    13
100
AcDbLine
 10
710.996961332659
 20
170.4627256689068
 30
0.0
 11
711.1219610896613
 21
170.4002257904057
 31
0.0
  0
LINE
  5
2A1
330
241
100
AcDbEntity
  8
GR1_01
  6
Continuous
 62
     7
370
    13
100
AcDbLine
 10
712.2469613326591
 20
170.4627256689068
 30
0.0
 11
712.3719610896613
 21
170.4002257904057
 31
0.0
  0
ENDBLK
  5
243
330
241
100
AcDbEntity
  8
0
100
AcDbBlockEnd
  0
BLOCK
  5
2E2
330
2E1
100
AcDbEntity
  8
0
100
AcDbBlockBegin
  2
BLKF023
 70
     0
 10
0.0
 20
0.0
 30
0.0
  3
BLKF023
  1

  0
LINE
  5
2E5
330
2E1
100
AcDbEntity
  8
GR1_01
  6
Continuous
 62
     7
370
    13
100
AcDbLine
 10
752.2220519335909
 20
110.9789022518455
 30
0.0
 11
752.4794063510506
 21
111.1075794605754
 31
0.0
  0
LINE
  5
2E6
330
2E1
100
AcDbEntity
  8
GR1_01
  6
Continuous
 62
     7
370
    13
100
AcDbLine
 10
753.4573458265386
 20
110.9715491983194
 30
0.0
 11
753.7294063510506
 21
111.1075794605754
 31
0.0
  0
LINE
  5
2E7
330
2E1
100
AcDbEntity
  8
GR1_01
  6
Continuous
 62
     7
370
    13
100
AcDbLine
 10
754.7073458265386
 20
110.9715491983193
 30
0.0
 11
754.9794063510506
 21
111.1075794605754
 31
0.0
  0
LINE
  5
2E8
330
2E1
100
AcDbEntity
  8
GR1_01
  6
Continuous
 62
     7
370
    13
100
AcDbLine
 10
755.9573458265386
 20
110.9715491983193
 30
0.0
 11
756.2294063510506
 21
111.1075794605754
 31
0.0
  0
LINE
  5
2E9
330
2E1
100
AcDbEntity
  8
GR1_01
  6
Continuous
 62
     7
370
    13
100
AcDbLine
 10
757.2073458265386
 20
110.9715491983193
 30
0.0
 11
757.2220519335898
 21
110.978902251845
 31
0.0
  0
LINE
  5
2EA
330
2E1
100
AcDbEntity
  8
GR1_01
  6
Continuous
 62
     7
370
    13
100
AcDbLine
 10
752.6044061401527
 20
111.1700793390765
 30
0.0
 11
753.1044061401527
 21
111.4200793390765
 31
0.0
  0
LINE
  5
2EB
330
2E1
100
AcDbEntity
  8
GR1_01
  6
Continuous
 62
     7
370
    13
100
AcDbLine
 10
753.8544061401527
 20
111.1700793390765
 30
0.0
 11
754.3544061401527
 21
111.4200793390765
 31
0.0
  0
LINE
  5
2EC
330
2E1
100
AcDbEntity
  8
GR1_01
  6
Continuous
 62
     7
370
    13
100
AcDbLine
 10
755.1044061401527
 20
111.1700793390765
 30
0.0
 11
755.6044061401527
 21
111.4200793390765
 31
0.0
  0
LINE
  5
2ED
330
2E1
100
AcDbEntity
  8
GR1_01
  6
Continuous
 62
     7
370
    13
100
AcDbLine
 10
756.3544061401527
 20
111.1700793390765
 30
0.0
 11
756.8544061401527
 21
111.4200793390765
 31
0.0
  0
LINE
  5
2EE
330
2E1
100
AcDbEntity
  8
GR1_01
  6
Continuous
 62
     7
370
    13
100
AcDbLine
 10
752.2220519335909
 20
111.6039022197457
 30
0.0
 11
752.4794059292549
 21
111.7325792175777
 31
0.0
  0
LINE
  5
2EF
330
2E1
100
AcDbEntity
  8
GR1_01
  6
Continuous
 62
     7
370
    13
100
AcDbLine
 10
753.2294059292549
 20
111.4825792175777
 30
0.0
 11
753.7294059292549
 21
111.7325792175777
 31
0.0
  0
LINE
  5
2F0
330
2E1
100
AcDbEntity
  8
GR1_01
  6
Continuous
 62
     7
370
    13
100
AcDbLine
 10
754.4794059292549
 20
111.4825792175777
 30
0.0
 11
754.9794059292549
 21
111.7325792175777
 31
0.0
  0
LINE
  5
2F1
330
2E1
100
AcDbEntity
  8
GR1_01
  6
Continuous
 62
     7
370
    13
100
AcDbLine
 10
755.7294059292549
 20
111.4825792175777
 30
0.0
 11
756.2294059292549
 21
111.7325792175777
 31
0.0
  0
LINE
  5
2F2
330
2E1
100
AcDbEntity
  8
GR1_01
  6
Continuous
 62
     7
370
    13
100
AcDbLine
 10
756.9794059292549
 20
111.4825792175777
 30
0.0
 11
757.2220519335898
 21
111.6039022197452
 31
0.0
  0
LINE
  5
2F3
330
2E1
100
AcDbEntity
  8
GR1_01
  6
Continuous
 62
     7
370
    13
100
AcDbLine
 10
752.6044057183572
 20
111.7950790960789
 30
0.0
 11
753.1044057183572
 21
112.0450790960789
 31
0.0
  0
LINE
  5
2F4
330
2E1
100
AcDbEntity
  8
GR1_01
  6
Continuous
 62
     7
370
    13
100
AcDbLine
 10
753.8544057183572
 20
111.7950790960789
 30
0.0
 11
754.3544057183572
 21
112.0450790960789
 31
0.0
  0
LINE
  5
2F5
330
2E1
100
AcDbEntity
  8
GR1_01
  6
Continuous
 62
     7
370
    13
100
AcDbLine
 10
755.1044057183572
 20
111.7950790960789
 30
0.0
 11
755.6044057183572
 21
112.0450790960789
 31
0.0
  0
LINE
  5
2F6
330
2E1
100
AcDbEntity
  8
GR1_01
  6
Continuous
 62
     7
370
    13
100
AcDbLine
 10
756.3544057183572
 20
111.7950790960789
 30
0.0
 11
756.8544057183572
 21
112.0450790960789
 31
0.0
  0
LINE
  5
2F7
330
2E1
100
AcDbEntity
  8
GR1_01
  6
Continuous
 62
     7
370
    13
100
AcDbLine
 10
752.2220519335909
 20
112.2289021876459
 30
0.0
 11
752.4794055074593
 21
112.3575789745801
 31
0.0
  0
LINE
  5
2F8
330
2E1
100
AcDbEntity
  8
GR1_01
  6
Continuous
 62
     7
370
    13
100
AcDbLine
 10
753.2294055074593
 20
112.1075789745801
 30
0.0
 11
753.7294055074593
 21
112.3575789745801
 31
0.0
  0
LINE
  5
2F9
330
2E1
100
AcDbEntity
  8
GR1_01
  6
Continuous
 62
     7
370
    13
100
AcDbLine
 10
754.4794055074593
 20
112.1075789745801
 30
0.0
 11
754.9794055074593
 21
112.3575789745801
 31
0.0
  0
LINE
  5
2FA
330
2E1
100
AcDbEntity
  8
GR1_01
  6
Continuous
 62
     7
370
    13
100
AcDbLine
 10
755.7294055074593
 20
112.1075789745801
 30
0.0
 11
756.2294055074593
 21
112.3575789745801
 31
0.0
  0
LINE
  5
2FB
330
2E1
100
AcDbEntity
  8
GR1_01
  6
Continuous
 62
     7
370
    13
100
AcDbLine
 10
756.9794055074593
 20
112.1075789745801
 30
0.0
 11
757.2220519335898
 21
112.2289021876454
 31
0.0
  0
LINE
  5
2FC
330
2E1
100
AcDbEntity
  8
GR1_01
  6
Continuous
 62
     7
370
    13
100
AcDbLine
 10
752.6044052965613
 20
112.4200788530812
 30
0.0
 11
753.1044052965613
 21
112.6700788530812
 31
0.0
  0
LINE
  5
2FD
330
2E1
100
AcDbEntity
  8
GR1_01
  6
Continuous
 62
     7
370
    13
100
AcDbLine
 10
753.8544052965613
 20
112.4200788530812
 30
0.0
 11
754.3544052965613
 21
112.6700788530812
 31
0.0
  0
LINE
  5
2FE
330
2E1
100
AcDbEntity
  8
GR1_01
  6
Continuous
 62
     7
370
    13
100
AcDbLine
 10
755.1044052965613
 20
112.4200788530812
 30
0.0
 11
755.6044052965613
 21
112.6700788530812
 31
0.0
  0
LINE
  5
2FF
330
2E1
100
AcDbEntity
  8
GR1_01
  6
Continuous
 62
     7
370
    13
100
AcDbLine
 10
756.3544052965613
 20
112.4200788530812
 30
0.0
 11
756.8544052965613
 21
112.6700788530812
 31
0.0
  0
LINE
  5
300
330
2E1
100
AcDbEntity
  8
GR1_01
  6
Continuous
 62
     7
370
    13
100
AcDbLine
 10
753.2294050856635
 20
112.7325787315824
 30
0.0
 11
753.3544048426658
 21
112.7950786100836
 31
0.0
  0
LINE
  5
301
330
2E1
100
AcDbEntity
  8
GR1_01
  6
Continuous
 62
     7
370
    13
100
AcDbLine
 10
754.4794050856635
 20
112.7325787315824
 30
0.0
 11
754.604404842666
 21
112.7950786100836
 31
0.0
  0
LINE
  5
302
330
2E1
100
AcDbEntity
  8
GR1_01
  6
Continuous
 62
     7
370
    13
100
AcDbLine
 10
755.7294050856635
 20
112.7325787315824
 30
0.0
 11
755.8544048426658
 21
112.7950786100836
 31
0.0
  0
LINE
  5
303
330
2E1
100
AcDbEntity
  8
GR1_01
  6
Continuous
 62
     7
370
    13
100
AcDbLine
 10
756.9794050856635
 20
112.7325787315824
 30
0.0
 11
757.1044048426658
 21
112.7950786100836
 31
0.0
  0
LINE
  5
304
330
2E1
100
AcDbEntity
  8
GR1_01
  6
Continuous
 62
     7
370
    13
100
AcDbLine
 10
752.6044061401527
 20
111.1700793390765
 30
0.0
 11
753.001466421667
 21
110.9715491983194
 31
0.0
  0
LINE
  5
305
330
2E1
100
AcDbEntity
  8
GR1_01
  6
Continuous
 62
     7
370
    13
100
AcDbLine
 10
753.8544061401527
 20
111.1700793390765
 30
0.0
 11
754.251466421667
 21
110.9715491983193
 31
0.0
  0
LINE
  5
306
330
2E1
100
AcDbEntity
  8
GR1_01
  6
Continuous
 62
     7
370
    13
100
AcDbLine
 10
755.1044061401527
 20
111.1700793390765
 30
0.0
 11
755.501466421667
 21
110.9715491983193
 31
0.0
  0
LINE
  5
307
330
2E1
100
AcDbEntity
  8
GR1_01
  6
Continuous
 62
     7
370
    13
100
AcDbLine
 10
756.3544061401527
 20
111.1700793390765
 30
0.0
 11
756.751466421667
 21
110.9715491983193
 31
0.0
  0
LINE
  5
308
330
2E1
100
AcDbEntity
  8
GR1_01
  6
Continuous
 62
     7
370
    13
100
AcDbLine
 10
752.2220519335909
 20
111.3612562154098
 30
0.0
 11
752.4794059292549
 21
111.2325792175777
 31
0.0
  0
LINE
  5
309
330
2E1
100
AcDbEntity
  8
GR1_01
  6
Continuous
 62
     7
370
    13
100
AcDbLine
 10
753.2294059292549
 20
111.4825792175777
 30
0.0
 11
753.7294059292549
 21
111.2325792175777
 31
0.0
  0
LINE
  5
30A
330
2E1
100
AcDbEntity
  8
GR1_01
  6
Continuous
 62
     7
370
    13
100
AcDbLine
 10
754.4794059292549
 20
111.4825792175777
 30
0.0
 11
754.9794059292549
 21
111.2325792175777
 31
0.0
  0
LINE
  5
30B
330
2E1
100
AcDbEntity
  8
GR1_01
  6
Continuous
 62
     7
370
    13
100
AcDbLine
 10
755.7294059292549
 20
111.4825792175777
 30
0.0
 11
756.2294059292549
 21
111.2325792175777
 31
0.0
  0
LINE
  5
30C
330
2E1
100
AcDbEntity
  8
GR1_01
  6
Continuous
 62
     7
370
    13
100
AcDbLine
 10
756.9794059292549
 20
111.4825792175777
 30
0.0
 11
757.2220519335898
 21
111.3612562154103
 31
0.0
  0
LINE
  5
30D
330
2E1
100
AcDbEntity
  8
GR1_01
  6
Continuous
 62
     7
370
    13
100
AcDbLine
 10
752.6044057183572
 20
111.7950790960789
 30
0.0
 11
753.1044057183572
 21
111.5450790960789
 31
0.0
  0
LINE
  5
30E
330
2E1
100
AcDbEntity
  8
GR1_01
  6
Continuous
 62
     7
370
    13
100
AcDbLine
 10
753.8544057183572
 20
111.7950790960789
 30
0.0
 11
754.3544057183572
 21
111.5450790960789
 31
0.0
  0
LINE
  5
30F
330
2E1
100
AcDbEntity
  8
GR1_01
  6
Continuous
 62
     7
370
    13
100
AcDbLine
 10
755.1044057183572
 20
111.7950790960789
 30
0.0
 11
755.6044057183572
 21
111.5450790960789
 31
0.0
  0
LINE
  5
310
330
2E1
100
AcDbEntity
  8
GR1_01
  6
Continuous
 62
     7
370
    13
100
AcDbLine
 10
756.3544057183572
 20
111.7950790960789
 30
0.0
 11
756.8544057183572
 21
111.5450790960789
 31
0.0
  0
LINE
  5
311
330
2E1
100
AcDbEntity
  8
GR1_01
  6
Continuous
 62
     7
370
    13
100
AcDbLine
 10
752.2220519335909
 20
111.9862557615143
 30
0.0
 11
752.4794055074593
 21
111.8575789745801
 31
0.0
  0
LINE
  5
312
330
2E1
100
AcDbEntity
  8
GR1_01
  6
Continuous
 62
     7
370
    13
100
AcDbLine
 10
753.2294055074593
 20
112.1075789745801
 30
0.0
 11
753.7294055074593
 21
111.8575789745801
 31
0.0
  0
LINE
  5
313
330
2E1
100
AcDbEntity
  8
GR1_01
  6
Continuous
 62
     7
370
    13
100
AcDbLine
 10
754.4794055074593
 20
112.1075789745801
 30
0.0
 11
754.9794055074593
 21
111.8575789745801
 31
0.0
  0
LINE
  5
314
330
2E1
100
AcDbEntity
  8
GR1_01
  6
Continuous
 62
     7
370
    13
100
AcDbLine
 10
755.7294055074593
 20
112.1075789745801
 30
0.0
 11
756.2294055074593
 21
111.8575789745801
 31
0.0
  0
LINE
  5
315
330
2E1
100
AcDbEntity
  8
GR1_01
  6
Continuous
 62
     7
370
    13
100
AcDbLine
 10
756.9794055074593
 20
112.1075789745801
 30
0.0
 11
757.2220519335898
 21
111.9862557615148
 31
0.0
  0
LINE
  5
316
330
2E1
100
AcDbEntity
  8
GR1_01
  6
Continuous
 62
     7
370
    13
100
AcDbLine
 10
752.6044052965613
 20
112.4200788530812
 30
0.0
 11
753.1044052965613
 21
112.1700788530812
 31
0.0
  0
LINE
  5
317
330
2E1
100
AcDbEntity
  8
GR1_01
  6
Continuous
 62
     7
370
    13
100
AcDbLine
 10
753.8544052965613
 20
112.4200788530812
 30
0.0
 11
754.3544052965613
 21
112.1700788530812
 31
0.0
  0
LINE
  5
318
330
2E1
100
AcDbEntity
  8
GR1_01
  6
Continuous
 62
     7
370
    13
100
AcDbLine
 10
755.1044052965613
 20
112.4200788530812
 30
0.0
 11
755.6044052965613
 21
112.1700788530812
 31
0.0
  0
LINE
  5
319
330
2E1
100
AcDbEntity
  8
GR1_01
  6
Continuous
 62
     7
370
    13
100
AcDbLine
 10
756.3544052965613
 20
112.4200788530812
 30
0.0
 11
756.8544052965613
 21
112.1700788530812
 31
0.0
  0
LINE
  5
31A
330
2E1
100
AcDbEntity
  8
GR1_01
  6
Continuous
 62
     7
370
    13
100
AcDbLine
 10
752.2220519335909
 20
112.6112553076188
 30
0.0
 11
752.4794050856635
 21
112.4825787315824
 31
0.0
  0
LINE
  5
31B
330
2E1
100
AcDbEntity
  8
GR1_01
  6
Continuous
 62
     7
370
    13
100
AcDbLine
 10
753.2294050856635
 20
112.7325787315824
 30
0.0
 11
753.7294050856635
 21
112.4825787315824
 31
0.0
  0
LINE
  5
31C
330
2E1
100
AcDbEntity
  8
GR1_01
  6
Continuous
 62
     7
370
    13
100
AcDbLine
 10
754.4794050856635
 20
112.7325787315824
 30
0.0
 11
754.9794050856635
 21
112.4825787315824
 31
0.0
  0
LINE
  5
31D
330
2E1
100
AcDbEntity
  8
GR1_01
  6
Continuous
 62
     7
370
    13
100
AcDbLine
 10
755.7294050856635
 20
112.7325787315824
 30
0.0
 11
756.2294050856635
 21
112.4825787315824
 31
0.0
  0
LINE
  5
31E
330
2E1
100
AcDbEntity
  8
GR1_01
  6
Continuous
 62
     7
370
    13
100
AcDbLine
 10
756.9794050856635
 20
112.7325787315824
 30
0.0
 11
757.2220519335898
 21
112.6112553076193
 31
0.0
  0
LINE
  5
31F
330
2E1
100
AcDbEntity
  8
GR1_01
  6
Continuous
 62
     7
370
    13
100
AcDbLine
 10
752.2220519335909
 20
111.1039022357956
 30
0.0
 11
752.3544061401527
 21
111.1700793390765
 31
0.0
  0
LINE
  5
320
330
2E1
100
AcDbEntity
  8
GR1_01
  6
Continuous
 62
     7
370
    13
100
AcDbLine
 10
753.2073458586383
 20
110.9715491983194
 30
0.0
 11
753.6044061401527
 21
111.1700793390765
 31
0.0
  0
LINE
  5
321
330
2E1
100
AcDbEntity
  8
GR1_01
  6
Continuous
 62
     7
370
    13
100
AcDbLine
 10
754.4573458586383
 20
110.9715491983193
 30
0.0
 11
754.8544061401527
 21
111.1700793390765
 31
0.0
  0
LINE
  5
322
330
2E1
100
AcDbEntity
  8
GR1_01
  6
Continuous
 62
     7
370
    13
100
AcDbLine
 10
755.7073458586383
 20
110.9715491983193
 30
0.0
 11
756.1044061401527
 21
111.1700793390765
 31
0.0
  0
LINE
  5
323
330
2E1
100
AcDbEntity
  8
GR1_01
  6
Continuous
 62
     7
370
    13
100
AcDbLine
 10
756.9573458586383
 20
110.9715491983193
 30
0.0
 11
757.2220519335898
 21
111.1039022357951
 31
0.0
  0
LINE
  5
324
330
2E1
100
AcDbEntity
  8
GR1_01
  6
Continuous
 62
     7
370
    13
100
AcDbLine
 10
752.4794059292549
 20
111.2325792175777
 30
0.0
 11
752.9794059292549
 21
111.4825792175777
 31
0.0
  0
LINE
  5
325
330
2E1
100
AcDbEntity
  8
GR1_01
  6
Continuous
 62
     7
370
    13
100
AcDbLine
 10
753.7294059292549
 20
111.2325792175777
 30
0.0
 11
754.2294059292549
 21
111.4825792175777
 31
0.0
  0
LINE
  5
326
330
2E1
100
AcDbEntity
  8
GR1_01
  6
Continuous
 62
     7
370
    13
100
AcDbLine
 10
754.9794059292549
 20
111.2325792175777
 30
0.0
 11
755.4794059292549
 21
111.4825792175777
 31
0.0
  0
LINE
  5
327
330
2E1
100
AcDbEntity
  8
GR1_01
  6
Continuous
 62
     7
370
    13
100
AcDbLine
 10
756.2294059292549
 20
111.2325792175777
 30
0.0
 11
756.7294059292549
 21
111.4825792175777
 31
0.0
  0
LINE
  5
328
330
2E1
100
AcDbEntity
  8
GR1_01
  6
Continuous
 62
     7
370
    13
100
AcDbLine
 10
752.2220519335909
 20
111.7289022036958
 30
0.0
 11
752.3544057183572
 21
111.7950790960789
 31
0.0
  0
LINE
  5
329
330
2E1
100
AcDbEntity
  8
GR1_01
  6
Continuous
 62
     7
370
    13
100
AcDbLine
 10
753.1044057183572
 20
111.5450790960789
 30
0.0
 11
753.6044057183572
 21
111.7950790960789
 31
0.0
  0
LINE
  5
32A
330
2E1
100
AcDbEntity
  8
GR1_01
  6
Continuous
 62
     7
370
    13
100
AcDbLine
 10
754.3544057183572
 20
111.5450790960789
 30
0.0
 11
754.8544057183572
 21
111.7950790960789
 31
0.0
  0
LINE
  5
32B
330
2E1
100
AcDbEntity
  8
GR1_01
  6
Continuous
 62
     7
370
    13
100
AcDbLine
 10
755.6044057183572
 20
111.5450790960789
 30
0.0
 11
756.1044057183572
 21
111.7950790960789
 31
0.0
  0
LINE
  5
32C
330
2E1
100
AcDbEntity
  8
GR1_01
  6
Continuous
 62
     7
370
    13
100
AcDbLine
 10
756.8544057183572
 20
111.5450790960789
 30
0.0
 11
757.2220519335898
 21
111.7289022036953
 31
0.0
  0
LINE
  5
32D
330
2E1
100
AcDbEntity
  8
GR1_01
  6
Continuous
 62
     7
370
    13
100
AcDbLine
 10
752.4794055074593
 20
111.8575789745801
 30
0.0
 11
752.9794055074593
 21
112.1075789745801
 31
0.0
  0
LINE
  5
32E
330
2E1
100
AcDbEntity
  8
GR1_01
  6
Continuous
 62
     7
370
    13
100
AcDbLine
 10
753.7294055074593
 20
111.8575789745801
 30
0.0
 11
754.2294055074593
 21
112.1075789745801
 31
0.0
  0
LINE
  5
32F
330
2E1
100
AcDbEntity
  8
GR1_01
  6
Continuous
 62
     7
370
    13
100
AcDbLine
 10
754.9794055074593
 20
111.8575789745801
 30
0.0
 11
755.4794055074593
 21
112.1075789745801
 31
0.0
  0
LINE
  5
330
330
2E1
100
AcDbEntity
  8
GR1_01
  6
Continuous
 62
     7
370
    13
100
AcDbLine
 10
756.2294055074593
 20
111.8575789745801
 30
0.0
 11
756.7294055074593
 21
112.1075789745801
 31
0.0
  0
LINE
  5
331
330
2E1
100
AcDbEntity
  8
GR1_01
  6
Continuous
 62
     7
370
    13
100
AcDbLine
 10
752.2220519335909
 20
112.353902171596
 30
0.0
 11
752.3544052965613
 21
112.4200788530812
 31
0.0
  0
LINE
  5
332
330
2E1
100
AcDbEntity
  8
GR1_01
  6
Continuous
 62
     7
370
    13
100
AcDbLine
 10
753.1044052965613
 20
112.1700788530812
 30
0.0
 11
753.6044052965613
 21
112.4200788530812
 31
0.0
  0
LINE
  5
333
330
2E1
100
AcDbEntity
  8
GR1_01
  6
Continuous
 62
     7
370
    13
100
AcDbLine
 10
754.3544052965613
 20
112.1700788530812
 30
0.0
 11
754.8544052965613
 21
112.4200788530812
 31
0.0
  0
LINE
  5
334
330
2E1
100
AcDbEntity
  8
GR1_01
  6
Continuous
 62
     7
370
    13
100
AcDbLine
 10
755.6044052965613
 20
112.1700788530812
 30
0.0
 11
756.1044052965613
 21
112.4200788530812
 31
0.0
  0
LINE
  5
335
330
2E1
100
AcDbEntity
  8
GR1_01
  6
Continuous
 62
     7
370
    13
100
AcDbLine
 10
756.8544052965613
 20
112.1700788530812
 30
0.0
 11
757.2220519335898
 21
112.3539021715955
 31
0.0
  0
LINE
  5
336
330
2E1
100
AcDbEntity
  8
GR1_01
  6
Continuous
 62
     7
370
    13
100
AcDbLine
 10
752.4794050856635
 20
112.4825787315824
 30
0.0
 11
752.9794050856635
 21
112.7325787315824
 31
0.0
  0
LINE
  5
337
330
2E1
100
AcDbEntity
  8
GR1_01
  6
Continuous
 62
     7
370
    13
100
AcDbLine
 10
753.7294050856635
 20
112.4825787315824
 30
0.0
 11
754.2294050856635
 21
112.7325787315824
 31
0.0
  0
LINE
  5
338
330
2E1
100
AcDbEntity
  8
GR1_01
  6
Continuous
 62
     7
370
    13
100
AcDbLine
 10
754.9794050856635
 20
112.4825787315824
 30
0.0
 11
755.4794050856635
 21
112.7325787315824
 31
0.0
  0
LINE
  5
339
330
2E1
100
AcDbEntity
  8
GR1_01
  6
Continuous
 62
     7
370
    13
100
AcDbLine
 10
756.2294050856635
 20
112.4825787315824
 30
0.0
 11
756.7294050856635
 21
112.7325787315824
 31
0.0
  0
LINE
  5
33A
330
2E1
100
AcDbEntity
  8
GR1_01
  6
Continuous
 62
     7
370
    13
100
AcDbLine
 10
752.4794063510506
 20
111.1075794605754
 30
0.0
 11
752.7514668755625
 21
110.9715491983194
 31
0.0
  0
LINE
  5
33B
330
2E1
100
AcDbEntity
  8
GR1_01
  6
Continuous
 62
     7
370
    13
100
AcDbLine
 10
753.7294063510506
 20
111.1075794605754
 30
0.0
 11
754.0014668755628
 21
110.9715491983193
 31
0.0
  0
LINE
  5
33C
330
2E1
100
AcDbEntity
  8
GR1_01
  6
Continuous
 62
     7
370
    13
100
AcDbLine
 10
754.9794063510506
 20
111.1075794605754
 30
0.0
 11
755.2514668755628
 21
110.9715491983193
 31
0.0
  0
LINE
  5
33D
330
2E1
100
AcDbEntity
  8
GR1_01
  6
Continuous
 62
     7
370
    13
100
AcDbLine
 10
756.2294063510506
 20
111.1075794605754
 30
0.0
 11
756.5014668755628
 21
110.9715491983193
 31
0.0
  0
LINE
  5
33E
330
2E1
100
AcDbEntity
  8
GR1_01
  6
Continuous
 62
     7
370
    13
100
AcDbLine
 10
752.2220519335909
 20
111.2362564423575
 30
0.0
 11
752.3544061401527
 21
111.1700793390765
 31
0.0
  0
LINE
  5
33F
330
2E1
100
AcDbEntity
  8
GR1_01
  6
Continuous
 62
     7
370
    13
100
AcDbLine
 10
753.1044061401527
 20
111.4200793390765
 30
0.0
 11
753.6044061401527
 21
111.1700793390765
 31
0.0
  0
LINE
  5
340
330
2E1
100
AcDbEntity
  8
GR1_01
  6
Continuous
 62
     7
370
    13
100
AcDbLine
 10
754.3544061401527
 20
111.4200793390765
 30
0.0
 11
754.8544061401527
 21
111.1700793390765
 31
0.0
  0
LINE
  5
341
330
2E1
100
AcDbEntity
  8
GR1_01
  6
Continuous
 62
     7
370
    13
100
AcDbLine
 10
755.6044061401527
 20
111.4200793390765
 30
0.0
 11
756.1044061401527
 21
111.1700793390765
 31
0.0
  0
LINE
  5
342
330
2E1
100
AcDbEntity
  8
GR1_01
  6
Continuous
 62
     7
370
    13
100
AcDbLine
 10
756.8544061401527
 20
111.4200793390765
 30
0.0
 11
757.2220519335898
 21
111.236256442358
 31
0.0
  0
LINE
  5
343
330
2E1
100
AcDbEntity
  8
GR1_01
  6
Continuous
 62
     7
370
    13
100
AcDbLine
 10
752.4794059292549
 20
111.7325792175777
 30
0.0
 11
752.9794059292549
 21
111.4825792175777
 31
0.0
  0
LINE
  5
344
330
2E1
100
AcDbEntity
  8
GR1_01
  6
Continuous
 62
     7
370
    13
100
AcDbLine
 10
753.7294059292549
 20
111.7325792175777
 30
0.0
 11
754.2294059292549
 21
111.4825792175777
 31
0.0
  0
LINE
  5
345
330
2E1
100
AcDbEntity
  8
GR1_01
  6
Continuous
 62
     7
370
    13
100
AcDbLine
 10
754.9794059292549
 20
111.7325792175777
 30
0.0
 11
755.4794059292549
 21
111.4825792175777
 31
0.0
  0
LINE
  5
346
330
2E1
100
AcDbEntity
  8
GR1_01
  6
Continuous
 62
     7
370
    13
100
AcDbLine
 10
756.2294059292549
 20
111.7325792175777
 30
0.0
 11
756.7294059292549
 21
111.4825792175777
 31
0.0
  0
LINE
  5
347
330
2E1
100
AcDbEntity
  8
GR1_01
  6
Continuous
 62
     7
370
    13
100
AcDbLine
 10
752.2220519335909
 20
111.861255988462
 30
0.0
 11
752.3544057183572
 21
111.7950790960789
 31
0.0
  0
LINE
  5
348
330
2E1
100
AcDbEntity
  8
GR1_01
  6
Continuous
 62
     7
370
    13
100
AcDbLine
 10
753.1044057183572
 20
112.0450790960789
 30
0.0
 11
753.6044057183572
 21
111.7950790960789
 31
0.0
  0
LINE
  5
349
330
2E1
100
AcDbEntity
  8
GR1_01
  6
Continuous
 62
     7
370
    13
100
AcDbLine
 10
754.3544057183572
 20
112.0450790960789
 30
0.0
 11
754.8544057183572
 21
111.7950790960789
 31
0.0
  0
LINE
  5
34A
330
2E1
100
AcDbEntity
  8
GR1_01
  6
Continuous
 62
     7
370
    13
100
AcDbLine
 10
755.6044057183572
 20
112.0450790960789
 30
0.0
 11
756.1044057183572
 21
111.7950790960789
 31
0.0
  0
LINE
  5
34B
330
2E1
100
AcDbEntity
  8
GR1_01
  6
Continuous
 62
     7
370
    13
100
AcDbLine
 10
756.8544057183572
 20
112.0450790960789
 30
0.0
 11
757.2220519335898
 21
111.8612559884625
 31
0.0
  0
LINE
  5
34C
330
2E1
100
AcDbEntity
  8
GR1_01
  6
Continuous
 62
     7
370
    13
100
AcDbLine
 10
752.4794055074593
 20
112.3575789745801
 30
0.0
 11
752.9794055074593
 21
112.1075789745801
 31
0.0
  0
LINE
  5
34D
330
2E1
100
AcDbEntity
  8
GR1_01
  6
Continuous
 62
     7
370
    13
100
AcDbLine
 10
753.7294055074593
 20
112.3575789745801
 30
0.0
 11
754.2294055074593
 21
112.1075789745801
 31
0.0
  0
LINE
  5
34E
330
2E1
100
AcDbEntity
  8
GR1_01
  6
Continuous
 62
     7
370
    13
100
AcDbLine
 10
754.9794055074593
 20
112.3575789745801
 30
0.0
 11
755.4794055074593
 21
112.1075789745801
 31
0.0
  0
LINE
  5
34F
330
2E1
100
AcDbEntity
  8
GR1_01
  6
Continuous
 62
     7
370
    13
100
AcDbLine
 10
756.2294055074593
 20
112.3575789745801
 30
0.0
 11
756.7294055074593
 21
112.1075789745801
 31
0.0
  0
LINE
  5
350
330
2E1
100
AcDbEntity
  8
GR1_01
  6
Continuous
 62
     7
370
    13
100
AcDbLine
 10
752.2220519335909
 20
112.4862555345665
 30
0.0
 11
752.3544052965613
 21
112.4200788530812
 31
0.0
  0
LINE
  5
351
330
2E1
100
AcDbEntity
  8
GR1_01
  6
Continuous
 62
     7
370
    13
100
AcDbLine
 10
753.1044052965613
 20
112.6700788530812
 30
0.0
 11
753.6044052965613
 21
112.4200788530812
 31
0.0
  0
LINE
  5
352
330
2E1
100
AcDbEntity
  8
GR1_01
  6
Continuous
 62
     7
370
    13
100
AcDbLine
 10
754.3544052965613
 20
112.6700788530812
 30
0.0
 11
754.8544052965613
 21
112.4200788530812
 31
0.0
  0
LINE
  5
353
330
2E1
100
AcDbEntity
  8
GR1_01
  6
Continuous
 62
     7
370
    13
100
AcDbLine
 10
755.6044052965613
 20
112.6700788530812
 30
0.0
 11
756.1044052965613
 21
112.4200788530812
 31
0.0
  0
LINE
  5
354
330
2E1
100
AcDbEntity
  8
GR1_01
  6
Continuous
 62
     7
370
    13
100
AcDbLine
 10
756.8544052965613
 20
112.6700788530812
 30
0.0
 11
757.2220519335898
 21
112.486255534567
 31
0.0
  0
LINE
  5
355
330
2E1
100
AcDbEntity
  8
GR1_01
  6
Continuous
 62
     7
370
    13
100
AcDbLine
 10
752.8544053286612
 20
112.7950786100836
 30
0.0
 11
752.9794050856635
 21
112.7325787315824
 31
0.0
  0
LINE
  5
356
330
2E1
100
AcDbEntity
  8
GR1_01
  6
Continuous
 62
     7
370
    13
100
AcDbLine
 10
754.1044053286614
 20
112.7950786100836
 30
0.0
 11
754.2294050856635
 21
112.7325787315824
 31
0.0
  0
LINE
  5
357
330
2E1
100
AcDbEntity
  8
GR1_01
  6
Continuous
 62
     7
370
    13
100
AcDbLine
 10
755.3544053286612
 20
112.7950786100836
 30
0.0
 11
755.4794050856635
 21
112.7325787315824
 31
0.0
  0
LINE
  5
358
330
2E1
100
AcDbEntity
  8
GR1_01
  6
Continuous
 62
     7
370
    13
100
AcDbLine
 10
756.6044053286612
 20
112.7950786100836
 30
0.0
 11
756.7294050856635
 21
112.7325787315824
 31
0.0
  0
ENDBLK
  5
2E3
330
2E1
100
AcDbEntity
  8
0
100
AcDbBlockEnd
  0
BLOCK
  5
366
330
365
100
AcDbEntity
  8
0
100
AcDbBlockBegin
  2
BLKF024
 70
     0
 10
0.0
 20
0.0
 30
0.0
  3
BLKF024
  1

  0
LINE
  5
369
330
365
100
AcDbEntity
  8
GR1_01
  6
Continuous
 62
     7
370
    13
100
AcDbLine
 10
708.2175488893613
 20
110.9715491983193
 30
0.0
 11
708.4896094138735
 21
111.1075794605754
 31
0.0
  0
LINE
  5
36A
330
365
100
AcDbEntity
  8
GR1_01
  6
Continuous
 62
     7
370
    13
100
AcDbLine
 10
709.4675488893613
 20
110.9715491983193
 30
0.0
 11
709.7396094138735
 21
111.1075794605754
 31
0.0
  0
LINE
  5
36B
330
365
100
AcDbEntity
  8
GR1_01
  6
Continuous
 62
     7
370
    13
100
AcDbLine
 10
710.7175488893613
 20
110.9715491983193
 30
0.0
 11
710.9896094138735
 21
111.1075794605754
 31
0.0
  0
LINE
  5
36C
330
365
100
AcDbEntity
  8
GR1_01
  6
Continuous
 62
     7
370
    13
100
AcDbLine
 10
711.9675488893613
 20
110.9715491983194
 30
0.0
 11
712.2396094138735
 21
111.1075794605754
 31
0.0
  0
LINE
  5
36D
330
365
100
AcDbEntity
  8
GR1_01
  6
Continuous
 62
     7
370
    13
100
AcDbLine
 10
707.4969608787645
 20
111.236255176971
 30
0.0
 11
707.8646092029757
 21
111.4200793390766
 31
0.0
  0
LINE
  5
36E
330
365
100
AcDbEntity
  8
GR1_01
  6
Continuous
 62
     7
370
    13
100
AcDbLine
 10
708.6146092029757
 20
111.1700793390766
 30
0.0
 11
709.1146092029757
 21
111.4200793390766
 31
0.0
  0
LINE
  5
36F
330
365
100
AcDbEntity
  8
GR1_01
  6
Continuous
 62
     7
370
    13
100
AcDbLine
 10
709.8646092029757
 20
111.1700793390766
 30
0.0
 11
710.3646092029757
 21
111.4200793390766
 31
0.0
  0
LINE
  5
370
330
365
100
AcDbEntity
  8
GR1_01
  6
Continuous
 62
     7
370
    13
100
AcDbLine
 10
711.1146092029757
 20
111.1700793390766
 30
0.0
 11
711.6146092029757
 21
111.4200793390766
 31
0.0
  0
LINE
  5
371
330
365
100
AcDbEntity
  8
GR1_01
  6
Continuous
 62
     7
370
    13
100
AcDbLine
 10
712.3646092029757
 20
111.1700793390766
 30
0.0
 11
712.4969608787634
 21
111.2362551769704
 31
0.0
  0
LINE
  5
372
330
365
100
AcDbEntity
  8
GR1_01
  6
Continuous
 62
     7
370
    13
100
AcDbLine
 10
707.9896089920777
 20
111.4825792175777
 30
0.0
 11
708.4896089920777
 21
111.7325792175777
 31
0.0
  0
LINE
  5
373
330
365
100
AcDbEntity
  8
GR1_01
  6
Continuous
 62
     7
370
    13
100
AcDbLine
 10
709.2396089920777
 20
111.4825792175777
 30
0.0
 11
709.7396089920777
 21
111.7325792175777
 31
0.0
  0
LINE
  5
374
330
365
100
AcDbEntity
  8
GR1_01
  6
Continuous
 62
     7
370
    13
100
AcDbLine
 10
710.4896089920777
 20
111.4825792175777
 30
0.0
 11
710.9896089920777
 21
111.7325792175777
 31
0.0
  0
LINE
  5
375
330
365
100
AcDbEntity
  8
GR1_01
  6
Continuous
 62
     7
370
    13
100
AcDbLine
 10
711.7396089920777
 20
111.4825792175777
 30
0.0
 11
712.2396089920777
 21
111.7325792175777
 31
0.0
  0
LINE
  5
376
330
365
100
AcDbEntity
  8
GR1_01
  6
Continuous
 62
     7
370
    13
100
AcDbLine
 10
707.4969608787645
 20
111.8612551448712
 30
0.0
 11
707.8646087811799
 21
112.0450790960789
 31
0.0
  0
LINE
  5
377
330
365
100
AcDbEntity
  8
GR1_01
  6
Continuous
 62
     7
370
    13
100
AcDbLine
 10
708.6146087811799
 20
111.7950790960789
 30
0.0
 11
709.1146087811799
 21
112.0450790960789
 31
0.0
  0
LINE
  5
378
330
365
100
AcDbEntity
  8
GR1_01
  6
Continuous
 62
     7
370
    13
100
AcDbLine
 10
709.8646087811799
 20
111.7950790960789
 30
0.0
 11
710.3646087811799
 21
112.0450790960789
 31
0.0
  0
LINE
  5
379
330
365
100
AcDbEntity
  8
GR1_01
  6
Continuous
 62
     7
370
    13
100
AcDbLine
 10
711.1146087811799
 20
111.7950790960789
 30
0.0
 11
711.6146087811799
 21
112.0450790960789
 31
0.0
  0
LINE
  5
37A
330
365
100
AcDbEntity
  8
GR1_01
  6
Continuous
 62
     7
370
    13
100
AcDbLine
 10
712.3646087811799
 20
111.7950790960789
 30
0.0
 11
712.4969608787634
 21
111.8612551448707
 31
0.0
  0
LINE
  5
37B
330
365
100
AcDbEntity
  8
GR1_01
  6
Continuous
 62
     7
370
    13
100
AcDbLine
 10
707.9896085702821
 20
112.1075789745801
 30
0.0
 11
708.4896085702821
 21
112.3575789745801
 31
0.0
  0
LINE
  5
37C
330
365
100
AcDbEntity
  8
GR1_01
  6
Continuous
 62
     7
370
    13
100
AcDbLine
 10
709.2396085702821
 20
112.1075789745801
 30
0.0
 11
709.7396085702821
 21
112.3575789745801
 31
0.0
  0
LINE
  5
37D
330
365
100
AcDbEntity
  8
GR1_01
  6
Continuous
 62
     7
370
    13
100
AcDbLine
 10
710.4896085702821
 20
112.1075789745801
 30
0.0
 11
710.9896085702821
 21
112.3575789745801
 31
0.0
  0
LINE
  5
37E
330
365
100
AcDbEntity
  8
GR1_01
  6
Continuous
 62
     7
370
    13
100
AcDbLine
 10
711.7396085702821
 20
112.1075789745801
 30
0.0
 11
712.2396085702821
 21
112.3575789745801
 31
0.0
  0
LINE
  5
37F
330
365
100
AcDbEntity
  8
GR1_01
  6
Continuous
 62
     7
370
    13
100
AcDbLine
 10
707.4969608787645
 20
112.4862551127713
 30
0.0
 11
707.8646083593843
 21
112.6700788530812
 31
0.0
  0
LINE
  5
380
330
365
100
AcDbEntity
  8
GR1_01
  6
Continuous
 62
     7
370
    13
100
AcDbLine
 10
708.6146083593843
 20
112.4200788530812
 30
0.0
 11
709.1146083593843
 21
112.6700788530812
 31
0.0
  0
LINE
  5
381
330
365
100
AcDbEntity
  8
GR1_01
  6
Continuous
 62
     7
370
    13
100
AcDbLine
 10
709.8646083593843
 20
112.4200788530812
 30
0.0
 11
710.3646083593843
 21
112.6700788530812
 31
0.0
  0
LINE
  5
382
330
365
100
AcDbEntity
  8
GR1_01
  6
Continuous
 62
     7
370
    13
100
AcDbLine
 10
711.1146083593843
 20
112.4200788530812
 30
0.0
 11
711.6146083593843
 21
112.6700788530812
 31
0.0
  0
LINE
  5
383
330
365
100
AcDbEntity
  8
GR1_01
  6
Continuous
 62
     7
370
    13
100
AcDbLine
 10
712.3646083593843
 20
112.4200788530812
 30
0.0
 11
712.4969608787634
 21
112.4862551127708
 31
0.0
  0
LINE
  5
384
330
365
100
AcDbEntity
  8
GR1_01
  6
Continuous
 62
     7
370
    13
100
AcDbLine
 10
707.9896081484865
 20
112.7325787315824
 30
0.0
 11
708.1146079054888
 21
112.7950786100836
 31
0.0
  0
LINE
  5
385
330
365
100
AcDbEntity
  8
GR1_01
  6
Continuous
 62
     7
370
    13
100
AcDbLine
 10
709.2396081484865
 20
112.7325787315824
 30
0.0
 11
709.3646079054888
 21
112.7950786100836
 31
0.0
  0
LINE
  5
386
330
365
100
AcDbEntity
  8
GR1_01
  6
Continuous
 62
     7
370
    13
100
AcDbLine
 10
710.4896081484865
 20
112.7325787315824
 30
0.0
 11
710.6146079054888
 21
112.7950786100836
 31
0.0
  0
LINE
  5
387
330
365
100
AcDbEntity
  8
GR1_01
  6
Continuous
 62
     7
370
    13
100
AcDbLine
 10
711.7396081484865
 20
112.7325787315824
 30
0.0
 11
711.8646079054888
 21
112.7950786100836
 31
0.0
  0
LINE
  5
388
330
365
100
AcDbEntity
  8
GR1_01
  6
Continuous
 62
     7
370
    13
100
AcDbLine
 10
707.4969608787645
 20
111.1039035011821
 30
0.0
 11
707.7616694844901
 21
110.9715491983193
 31
0.0
  0
LINE
  5
389
330
365
100
AcDbEntity
  8
GR1_01
  6
Continuous
 62
     7
370
    13
100
AcDbLine
 10
708.6146092029757
 20
111.1700793390766
 30
0.0
 11
709.0116694844901
 21
110.9715491983193
 31
0.0
  0
LINE
  5
38A
330
365
100
AcDbEntity
  8
GR1_01
  6
Continuous
 62
     7
370
    13
100
AcDbLine
 10
709.8646092029757
 20
111.1700793390766
 30
0.0
 11
710.2616694844901
 21
110.9715491983193
 31
0.0
  0
LINE
  5
38B
330
365
100
AcDbEntity
  8
GR1_01
  6
Continuous
 62
     7
370
    13
100
AcDbLine
 10
711.1146092029757
 20
111.1700793390766
 30
0.0
 11
711.5116694844901
 21
110.9715491983193
 31
0.0
  0
LINE
  5
38C
330
365
100
AcDbEntity
  8
GR1_01
  6
Continuous
 62
     7
370
    13
100
AcDbLine
 10
712.3646092029757
 20
111.1700793390766
 30
0.0
 11
712.4969608787634
 21
111.1039035011827
 31
0.0
  0
LINE
  5
38D
330
365
100
AcDbEntity
  8
GR1_01
  6
Continuous
 62
     7
370
    13
100
AcDbLine
 10
707.9896089920777
 20
111.4825792175777
 30
0.0
 11
708.4896089920777
 21
111.2325792175777
 31
0.0
  0
LINE
  5
38E
330
365
100
AcDbEntity
  8
GR1_01
  6
Continuous
 62
     7
370
    13
100
AcDbLine
 10
709.2396089920777
 20
111.4825792175777
 30
0.0
 11
709.7396089920777
 21
111.2325792175777
 31
0.0
  0
LINE
  5
38F
330
365
100
AcDbEntity
  8
GR1_01
  6
Continuous
 62
     7
370
    13
100
AcDbLine
 10
710.4896089920777
 20
111.4825792175777
 30
0.0
 11
710.9896089920777
 21
111.2325792175777
 31
0.0
  0
LINE
  5
390
330
365
100
AcDbEntity
  8
GR1_01
  6
Continuous
 62
     7
370
    13
100
AcDbLine
 10
711.7396089920777
 20
111.4825792175777
 30
0.0
 11
712.2396089920777
 21
111.2325792175777
 31
0.0
  0
LINE
  5
391
330
365
100
AcDbEntity
  8
GR1_01
  6
Continuous
 62
     7
370
    13
100
AcDbLine
 10
707.4969608787645
 20
111.7289030472866
 30
0.0
 11
707.8646087811799
 21
111.5450790960789
 31
0.0
  0
LINE
  5
392
330
365
100
AcDbEntity
  8
GR1_01
  6
Continuous
 62
     7
370
    13
100
AcDbLine
 10
708.6146087811799
 20
111.7950790960789
 30
0.0
 11
709.1146087811799
 21
111.5450790960789
 31
0.0
  0
LINE
  5
393
330
365
100
AcDbEntity
  8
GR1_01
  6
Continuous
 62
     7
370
    13
100
AcDbLine
 10
709.8646087811799
 20
111.7950790960789
 30
0.0
 11
710.3646087811799
 21
111.5450790960789
 31
0.0
  0
LINE
  5
394
330
365
100
AcDbEntity
  8
GR1_01
  6
Continuous
 62
     7
370
    13
100
AcDbLine
 10
711.1146087811799
 20
111.7950790960789
 30
0.0
 11
711.6146087811799
 21
111.5450790960789
 31
0.0
  0
LINE
  5
395
330
365
100
AcDbEntity
  8
GR1_01
  6
Continuous
 62
     7
370
    13
100
AcDbLine
 10
712.3646087811799
 20
111.7950790960789
 30
0.0
 11
712.4969608787634
 21
111.7289030472871
 31
0.0
  0
LINE
  5
396
330
365
100
AcDbEntity
  8
GR1_01
  6
Continuous
 62
     7
370
    13
100
AcDbLine
 10
707.9896085702821
 20
112.1075789745801
 30
0.0
 11
708.4896085702821
 21
111.8575789745801
 31
0.0
  0
LINE
  5
397
330
365
100
AcDbEntity
  8
GR1_01
  6
Continuous
 62
     7
370
    13
100
AcDbLine
 10
709.2396085702821
 20
112.1075789745801
 30
0.0
 11
709.7396085702821
 21
111.8575789745801
 31
0.0
  0
LINE
  5
398
330
365
100
AcDbEntity
  8
GR1_01
  6
Continuous
 62
     7
370
    13
100
AcDbLine
 10
710.4896085702821
 20
112.1075789745801
 30
0.0
 11
710.9896085702821
 21
111.8575789745801
 31
0.0
  0
LINE
  5
399
330
365
100
AcDbEntity
  8
GR1_01
  6
Continuous
 62
     7
370
    13
100
AcDbLine
 10
711.7396085702821
 20
112.1075789745801
 30
0.0
 11
712.2396085702821
 21
111.8575789745801
 31
0.0
  0
LINE
  5
39A
330
365
100
AcDbEntity
  8
GR1_01
  6
Continuous
 62
     7
370
    13
100
AcDbLine
 10
707.4969608787645
 20
112.3539025933912
 30
0.0
 11
707.8646083593843
 21
112.1700788530812
 31
0.0
  0
LINE
  5
39B
330
365
100
AcDbEntity
  8
GR1_01
  6
Continuous
 62
     7
370
    13
100
AcDbLine
 10
708.6146083593843
 20
112.4200788530812
 30
0.0
 11
709.1146083593843
 21
112.1700788530812
 31
0.0
  0
LINE
  5
39C
330
365
100
AcDbEntity
  8
GR1_01
  6
Continuous
 62
     7
370
    13
100
AcDbLine
 10
709.8646083593843
 20
112.4200788530812
 30
0.0
 11
710.3646083593843
 21
112.1700788530812
 31
0.0
  0
LINE
  5
39D
330
365
100
AcDbEntity
  8
GR1_01
  6
Continuous
 62
     7
370
    13
100
AcDbLine
 10
711.1146083593843
 20
112.4200788530812
 30
0.0
 11
711.6146083593843
 21
112.1700788530812
 31
0.0
  0
LINE
  5
39E
330
365
100
AcDbEntity
  8
GR1_01
  6
Continuous
 62
     7
370
    13
100
AcDbLine
 10
712.3646083593843
 20
112.4200788530812
 30
0.0
 11
712.4969608787634
 21
112.3539025933917
 31
0.0
  0
LINE
  5
39F
330
365
100
AcDbEntity
  8
GR1_01
  6
Continuous
 62
     7
370
    13
100
AcDbLine
 10
707.9896081484865
 20
112.7325787315824
 30
0.0
 11
708.4896081484865
 21
112.4825787315824
 31
0.0
  0
LINE
  5
3A0
330
365
100
AcDbEntity
  8
GR1_01
  6
Continuous
 62
     7
370
    13
100
AcDbLine
 10
709.2396081484865
 20
112.7325787315824
 30
0.0
 11
709.7396081484865
 21
112.4825787315824
 31
0.0
  0
LINE
  5
3A1
330
365
100
AcDbEntity
  8
GR1_01
  6
Continuous
 62
     7
370
    13
100
AcDbLine
 10
710.4896081484865
 20
112.7325787315824
 30
0.0
 11
710.9896081484865
 21
112.4825787315824
 31
0.0
  0
LINE
  5
3A2
330
365
100
AcDbEntity
  8
GR1_01
  6
Continuous
 62
     7
370
    13
100
AcDbLine
 10
711.7396081484865
 20
112.7325787315824
 30
0.0
 11
712.2396081484865
 21
112.4825787315824
 31
0.0
  0
LINE
  5
3A3
330
365
100
AcDbEntity
  8
GR1_01
  6
Continuous
 62
     7
370
    13
100
AcDbLine
 10
707.9675489214612
 20
110.9715491983193
 30
0.0
 11
708.3646092029757
 21
111.1700793390766
 31
0.0
  0
LINE
  5
3A4
330
365
100
AcDbEntity
  8
GR1_01
  6
Continuous
 62
     7
370
    13
100
AcDbLine
 10
709.2175489214612
 20
110.9715491983193
 30
0.0
 11
709.6146092029757
 21
111.1700793390766
 31
0.0
  0
LINE
  5
3A5
330
365
100
AcDbEntity
  8
GR1_01
  6
Continuous
 62
     7
370
    13
100
AcDbLine
 10
710.4675489214612
 20
110.9715491983193
 30
0.0
 11
710.8646092029757
 21
111.1700793390766
 31
0.0
  0
LINE
  5
3A6
330
365
100
AcDbEntity
  8
GR1_01
  6
Continuous
 62
     7
370
    13
100
AcDbLine
 10
711.7175489214612
 20
110.9715491983194
 30
0.0
 11
712.1146092029757
 21
111.1700793390766
 31
0.0
  0
LINE
  5
3A7
330
365
100
AcDbEntity
  8
GR1_01
  6
Continuous
 62
     7
370
    13
100
AcDbLine
 10
707.4969608787645
 20
111.361255160921
 30
0.0
 11
707.7396089920777
 21
111.4825792175777
 31
0.0
  0
LINE
  5
3A8
330
365
100
AcDbEntity
  8
GR1_01
  6
Continuous
 62
     7
370
    13
100
AcDbLine
 10
708.4896089920777
 20
111.2325792175777
 30
0.0
 11
708.9896089920777
 21
111.4825792175777
 31
0.0
  0
LINE
  5
3A9
330
365
100
AcDbEntity
  8
GR1_01
  6
Continuous
 62
     7
370
    13
100
AcDbLine
 10
709.7396089920777
 20
111.2325792175777
 30
0.0
 11
710.2396089920777
 21
111.4825792175777
 31
0.0
  0
LINE
  5
3AA
330
365
100
AcDbEntity
  8
GR1_01
  6
Continuous
 62
     7
370
    13
100
AcDbLine
 10
710.9896089920777
 20
111.2325792175777
 30
0.0
 11
711.4896089920777
 21
111.4825792175777
 31
0.0
  0
LINE
  5
3AB
330
365
100
AcDbEntity
  8
GR1_01
  6
Continuous
 62
     7
370
    13
100
AcDbLine
 10
712.2396089920777
 20
111.2325792175777
 30
0.0
 11
712.4969608787634
 21
111.3612551609205
 31
0.0
  0
LINE
  5
3AC
330
365
100
AcDbEntity
  8
GR1_01
  6
Continuous
 62
     7
370
    13
100
AcDbLine
 10
707.8646087811799
 20
111.5450790960789
 30
0.0
 11
708.3646087811799
 21
111.7950790960789
 31
0.0
  0
LINE
  5
3AD
330
365
100
AcDbEntity
  8
GR1_01
  6
Continuous
 62
     7
370
    13
100
AcDbLine
 10
709.1146087811799
 20
111.5450790960789
 30
0.0
 11
709.6146087811799
 21
111.7950790960789
 31
0.0
  0
LINE
  5
3AE
330
365
100
AcDbEntity
  8
GR1_01
  6
Continuous
 62
     7
370
    13
100
AcDbLine
 10
710.3646087811799
 20
111.5450790960789
 30
0.0
 11
710.8646087811799
 21
111.7950790960789
 31
0.0
  0
LINE
  5
3AF
330
365
100
AcDbEntity
  8
GR1_01
  6
Continuous
 62
     7
370
    13
100
AcDbLine
 10
711.6146087811799
 20
111.5450790960789
 30
0.0
 11
712.1146087811799
 21
111.7950790960789
 31
0.0
  0
LINE
  5
3B0
330
365
100
AcDbEntity
  8
GR1_01
  6
Continuous
 62
     7
370
    13
100
AcDbLine
 10
707.4969608787645
 20
111.9862551288213
 30
0.0
 11
707.7396085702821
 21
112.1075789745801
 31
0.0
  0
LINE
  5
3B1
330
365
100
AcDbEntity
  8
GR1_01
  6
Continuous
 62
     7
370
    13
100
AcDbLine
 10
708.4896085702821
 20
111.8575789745801
 30
0.0
 11
708.9896085702821
 21
112.1075789745801
 31
0.0
  0
LINE
  5
3B2
330
365
100
AcDbEntity
  8
GR1_01
  6
Continuous
 62
     7
370
    13
100
AcDbLine
 10
709.7396085702821
 20
111.8575789745801
 30
0.0
 11
710.2396085702821
 21
112.1075789745801
 31
0.0
  0
LINE
  5
3B3
330
365
100
AcDbEntity
  8
GR1_01
  6
Continuous
 62
     7
370
    13
100
AcDbLine
 10
710.9896085702821
 20
111.8575789745801
 30
0.0
 11
711.4896085702821
 21
112.1075789745801
 31
0.0
  0
LINE
  5
3B4
330
365
100
AcDbEntity
  8
GR1_01
  6
Continuous
 62
     7
370
    13
100
AcDbLine
 10
712.2396085702821
 20
111.8575789745801
 30
0.0
 11
712.4969608787634
 21
111.9862551288207
 31
0.0
  0
LINE
  5
3B5
330
365
100
AcDbEntity
  8
GR1_01
  6
Continuous
 62
     7
370
    13
100
AcDbLine
 10
707.8646083593843
 20
112.1700788530812
 30
0.0
 11
708.3646083593843
 21
112.4200788530812
 31
0.0
  0
LINE
  5
3B6
330
365
100
AcDbEntity
  8
GR1_01
  6
Continuous
 62
     7
370
    13
100
AcDbLine
 10
709.1146083593843
 20
112.1700788530812
 30
0.0
 11
709.6146083593843
 21
112.4200788530812
 31
0.0
  0
LINE
  5
3B7
330
365
100
AcDbEntity
  8
GR1_01
  6
Continuous
 62
     7
370
    13
100
AcDbLine
 10
710.3646083593843
 20
112.1700788530812
 30
0.0
 11
710.8646083593843
 21
112.4200788530812
 31
0.0
  0
LINE
  5
3B8
330
365
100
AcDbEntity
  8
GR1_01
  6
Continuous
 62
     7
370
    13
100
AcDbLine
 10
711.6146083593843
 20
112.1700788530812
 30
0.0
 11
712.1146083593843
 21
112.4200788530812
 31
0.0
  0
LINE
  5
3B9
330
365
100
AcDbEntity
  8
GR1_01
  6
Continuous
 62
     7
370
    13
100
AcDbLine
 10
707.4969608787645
 20
112.6112550967214
 30
0.0
 11
707.7396081484865
 21
112.7325787315824
 31
0.0
  0
LINE
  5
3BA
330
365
100
AcDbEntity
  8
GR1_01
  6
Continuous
 62
     7
370
    13
100
AcDbLine
 10
708.4896081484865
 20
112.4825787315824
 30
0.0
 11
708.9896081484865
 21
112.7325787315824
 31
0.0
  0
LINE
  5
3BB
330
365
100
AcDbEntity
  8
GR1_01
  6
Continuous
 62
     7
370
    13
100
AcDbLine
 10
709.7396081484865
 20
112.4825787315824
 30
0.0
 11
710.2396081484865
 21
112.7325787315824
 31
0.0
  0
LINE
  5
3BC
330
365
100
AcDbEntity
  8
GR1_01
  6
Continuous
 62
     7
370
    13
100
AcDbLine
 10
710.9896081484865
 20
112.4825787315824
 30
0.0
 11
711.4896081484865
 21
112.7325787315824
 31
0.0
  0
LINE
  5
3BD
330
365
100
AcDbEntity
  8
GR1_01
  6
Continuous
 62
     7
370
    13
100
AcDbLine
 10
712.2396081484865
 20
112.4825787315824
 30
0.0
 11
712.4969608787634
 21
112.6112550967209
 31
0.0
  0
LINE
  5
3BE
330
365
100
AcDbEntity
  8
GR1_01
  6
Continuous
 62
     7
370
    13
100
AcDbLine
 10
707.4969608787645
 20
110.9789037281298
 30
0.0
 11
707.5116699383856
 21
110.9715491983193
 31
0.0
  0
LINE
  5
3BF
330
365
100
AcDbEntity
  8
GR1_01
  6
Continuous
 62
     7
370
    13
100
AcDbLine
 10
708.4896094138735
 20
111.1075794605754
 30
0.0
 11
708.7616699383856
 21
110.9715491983193
 31
0.0
  0
LINE
  5
3C0
330
365
100
AcDbEntity
  8
GR1_01
  6
Continuous
 62
     7
370
    13
100
AcDbLine
 10
709.7396094138735
 20
111.1075794605754
 30
0.0
 11
710.0116699383855
 21
110.9715491983193
 31
0.0
  0
LINE
  5
3C1
330
365
100
AcDbEntity
  8
GR1_01
  6
Continuous
 62
     7
370
    13
100
AcDbLine
 10
710.9896094138735
 20
111.1075794605754
 30
0.0
 11
711.2616699383856
 21
110.9715491983193
 31
0.0
  0
LINE
  5
3C2
330
365
100
AcDbEntity
  8
GR1_01
  6
Continuous
 62
     7
370
    13
100
AcDbLine
 10
712.2396094138735
 20
111.1075794605754
 30
0.0
 11
712.4969608787634
 21
110.9789037281304
 31
0.0
  0
LINE
  5
3C3
330
365
100
AcDbEntity
  8
GR1_01
  6
Continuous
 62
     7
370
    13
100
AcDbLine
 10
707.8646092029757
 20
111.4200793390766
 30
0.0
 11
708.3646092029757
 21
111.1700793390766
 31
0.0
  0
LINE
  5
3C4
330
365
100
AcDbEntity
  8
GR1_01
  6
Continuous
 62
     7
370
    13
100
AcDbLine
 10
709.1146092029757
 20
111.4200793390766
 30
0.0
 11
709.6146092029757
 21
111.1700793390766
 31
0.0
  0
LINE
  5
3C5
330
365
100
AcDbEntity
  8
GR1_01
  6
Continuous
 62
     7
370
    13
100
AcDbLine
 10
710.3646092029757
 20
111.4200793390766
 30
0.0
 11
710.8646092029757
 21
111.1700793390766
 31
0.0
  0
LINE
  5
3C6
330
365
100
AcDbEntity
  8
GR1_01
  6
Continuous
 62
     7
370
    13
100
AcDbLine
 10
711.6146092029757
 20
111.4200793390766
 30
0.0
 11
712.1146092029757
 21
111.1700793390766
 31
0.0
  0
LINE
  5
3C7
330
365
100
AcDbEntity
  8
GR1_01
  6
Continuous
 62
     7
370
    13
100
AcDbLine
 10
707.4969608787645
 20
111.6039032742344
 30
0.0
 11
707.7396089920777
 21
111.4825792175777
 31
0.0
  0
LINE
  5
3C8
330
365
100
AcDbEntity
  8
GR1_01
  6
Continuous
 62
     7
370
    13
100
AcDbLine
 10
708.4896089920777
 20
111.7325792175777
 30
0.0
 11
708.9896089920777
 21
111.4825792175777
 31
0.0
  0
LINE
  5
3C9
330
365
100
AcDbEntity
  8
GR1_01
  6
Continuous
 62
     7
370
    13
100
AcDbLine
 10
709.7396089920777
 20
111.7325792175777
 30
0.0
 11
710.2396089920777
 21
111.4825792175777
 31
0.0
  0
LINE
  5
3CA
330
365
100
AcDbEntity
  8
GR1_01
  6
Continuous
 62
     7
370
    13
100
AcDbLine
 10
710.9896089920777
 20
111.7325792175777
 30
0.0
 11
711.4896089920777
 21
111.4825792175777
 31
0.0
  0
LINE
  5
3CB
330
365
100
AcDbEntity
  8
GR1_01
  6
Continuous
 62
     7
370
    13
100
AcDbLine
 10
712.2396089920777
 20
111.7325792175777
 30
0.0
 11
712.4969608787634
 21
111.6039032742349
 31
0.0
  0
LINE
  5
3CC
330
365
100
AcDbEntity
  8
GR1_01
  6
Continuous
 62
     7
370
    13
100
AcDbLine
 10
707.8646087811799
 20
112.0450790960789
 30
0.0
 11
708.3646087811799
 21
111.7950790960789
 31
0.0
  0
LINE
  5
3CD
330
365
100
AcDbEntity
  8
GR1_01
  6
Continuous
 62
     7
370
    13
100
AcDbLine
 10
709.1146087811799
 20
112.0450790960789
 30
0.0
 11
709.6146087811799
 21
111.7950790960789
 31
0.0
  0
LINE
  5
3CE
330
365
100
AcDbEntity
  8
GR1_01
  6
Continuous
 62
     7
370
    13
100
AcDbLine
 10
710.3646087811799
 20
112.0450790960789
 30
0.0
 11
710.8646087811799
 21
111.7950790960789
 31
0.0
  0
LINE
  5
3CF
330
365
100
AcDbEntity
  8
GR1_01
  6
Continuous
 62
     7
370
    13
100
AcDbLine
 10
711.6146087811799
 20
112.0450790960789
 30
0.0
 11
712.1146087811799
 21
111.7950790960789
 31
0.0
  0
LINE
  5
3D0
330
365
100
AcDbEntity
  8
GR1_01
  6
Continuous
 62
     7
370
    13
100
AcDbLine
 10
707.4969608787645
 20
112.2289028203389
 30
0.0
 11
707.7396085702821
 21
112.1075789745801
 31
0.0
  0
LINE
  5
3D1
330
365
100
AcDbEntity
  8
GR1_01
  6
Continuous
 62
     7
370
    13
100
AcDbLine
 10
708.4896085702821
 20
112.3575789745801
 30
0.0
 11
708.9896085702821
 21
112.1075789745801
 31
0.0
  0
LINE
  5
3D2
330
365
100
AcDbEntity
  8
GR1_01
  6
Continuous
 62
     7
370
    13
100
AcDbLine
 10
709.7396085702821
 20
112.3575789745801
 30
0.0
 11
710.2396085702821
 21
112.1075789745801
 31
0.0
  0
LINE
  5
3D3
330
365
100
AcDbEntity
  8
GR1_01
  6
Continuous
 62
     7
370
    13
100
AcDbLine
 10
710.9896085702821
 20
112.3575789745801
 30
0.0
 11
711.4896085702821
 21
112.1075789745801
 31
0.0
  0
LINE
  5
3D4
330
365
100
AcDbEntity
  8
GR1_01
  6
Continuous
 62
     7
370
    13
100
AcDbLine
 10
712.2396085702821
 20
112.3575789745801
 30
0.0
 11
712.4969608787634
 21
112.2289028203394
 31
0.0
  0
LINE
  5
3D5
330
365
100
AcDbEntity
  8
GR1_01
  6
Continuous
 62
     7
370
    13
100
AcDbLine
 10
707.8646083593843
 20
112.6700788530812
 30
0.0
 11
708.3646083593843
 21
112.4200788530812
 31
0.0
  0
LINE
  5
3D6
330
365
100
AcDbEntity
  8
GR1_01
  6
Continuous
 62
     7
370
    13
100
AcDbLine
 10
709.1146083593843
 20
112.6700788530812
 30
0.0
 11
709.6146083593843
 21
112.4200788530812
 31
0.0
  0
LINE
  5
3D7
330
365
100
AcDbEntity
  8
GR1_01
  6
Continuous
 62
     7
370
    13
100
AcDbLine
 10
710.3646083593843
 20
112.6700788530812
 30
0.0
 11
710.8646083593843
 21
112.4200788530812
 31
0.0
  0
LINE
  5
3D8
330
365
100
AcDbEntity
  8
GR1_01
  6
Continuous
 62
     7
370
    13
100
AcDbLine
 10
711.6146083593843
 20
112.6700788530812
 30
0.0
 11
712.1146083593843
 21
112.4200788530812
 31
0.0
  0
LINE
  5
3D9
330
365
100
AcDbEntity
  8
GR1_01
  6
Continuous
 62
     7
370
    13
100
AcDbLine
 10
707.6146083914841
 20
112.7950786100836
 30
0.0
 11
707.7396081484865
 21
112.7325787315824
 31
0.0
  0
LINE
  5
3DA
330
365
100
AcDbEntity
  8
GR1_01
  6
Continuous
 62
     7
370
    13
100
AcDbLine
 10
708.8646083914841
 20
112.7950786100836
 30
0.0
 11
708.9896081484865
 21
112.7325787315824
 31
0.0
  0
LINE
  5
3DB
330
365
100
AcDbEntity
  8
GR1_01
  6
Continuous
 62
     7
370
    13
100
AcDbLine
 10
710.1146083914841
 20
112.7950786100836
 30
0.0
 11
710.2396081484865
 21
112.7325787315824
 31
0.0
  0
LINE
  5
3DC
330
365
100
AcDbEntity
  8
GR1_01
  6
Continuous
 62
     7
370
    13
100
AcDbLine
 10
711.3646083914841
 20
112.7950786100836
 30
0.0
 11
711.4896081484865
 21
112.7325787315824
 31
0.0
  0
ENDBLK
  5
367
330
365
100
AcDbEntity
  8
0
100
AcDbBlockEnd
  0
BLOCK
  5
463
330
462
100
AcDbEntity
  8
0
100
AcDbBlockBegin
  2
BLKF025
 70
     0
 10
0.0
 20
0.0
 30
0.0
  3
BLKF025
  1

  0
LINE
  5
466
330
462
100
AcDbEntity
  8
GR1_01
  6
Continuous
 62
     7
370
    13
100
AcDbLine
 10
808.4142766513737
 20
95.57923467203143
 30
0.0
 11
808.6716310688333
 21
95.70791188076133
 31
0.0
  0
LINE
  5
467
330
462
100
AcDbEntity
  8
GR1_01
  6
Continuous
 62
     7
370
    13
100
AcDbLine
 10
809.6495705443213
 20
95.5718816185053
 30
0.0
 11
809.9216310688333
 21
95.70791188076133
 31
0.0
  0
LINE
  5
468
330
462
100
AcDbEntity
  8
GR1_01
  6
Continuous
 62
     7
370
    13
100
AcDbLine
 10
810.8995705443215
 20
95.5718816185053
 30
0.0
 11
811.1716310688333
 21
95.70791188076133
 31
0.0
  0
LINE
  5
469
330
462
100
AcDbEntity
  8
GR1_01
  6
Continuous
 62
     7
370
    13
100
AcDbLine
 10
812.1495705443215
 20
95.5718816185053
 30
0.0
 11
812.4216310688333
 21
95.70791188076133
 31
0.0
  0
LINE
  5
46A
330
462
100
AcDbEntity
  8
GR1_01
  6
Continuous
 62
     7
370
    13
100
AcDbLine
 10
813.3995705443213
 20
95.57188161850527
 30
0.0
 11
813.4142766513726
 21
95.57923467203094
 31
0.0
  0
LINE
  5
46B
330
462
100
AcDbEntity
  8
GR1_01
  6
Continuous
 62
     7
370
    13
100
AcDbLine
 10
808.7966308579355
 20
95.7704117592625
 30
0.0
 11
809.2966308579355
 21
96.0204117592625
 31
0.0
  0
LINE
  5
46C
330
462
100
AcDbEntity
  8
GR1_01
  6
Continuous
 62
     7
370
    13
100
AcDbLine
 10
810.0466308579355
 20
95.7704117592625
 30
0.0
 11
810.5466308579355
 21
96.0204117592625
 31
0.0
  0
LINE
  5
46D
330
462
100
AcDbEntity
  8
GR1_01
  6
Continuous
 62
     7
370
    13
100
AcDbLine
 10
811.2966308579355
 20
95.7704117592625
 30
0.0
 11
811.7966308579355
 21
96.0204117592625
 31
0.0
  0
LINE
  5
46E
330
462
100
AcDbEntity
  8
GR1_01
  6
Continuous
 62
     7
370
    13
100
AcDbLine
 10
812.5466308579355
 20
95.7704117592625
 30
0.0
 11
813.0466308579355
 21
96.0204117592625
 31
0.0
  0
LINE
  5
46F
330
462
100
AcDbEntity
  8
GR1_01
  6
Continuous
 62
     7
370
    13
100
AcDbLine
 10
808.4142766513737
 20
96.20423463993164
 30
0.0
 11
808.6716306470377
 21
96.33291163776367
 31
0.0
  0
LINE
  5
470
330
462
100
AcDbEntity
  8
GR1_01
  6
Continuous
 62
     7
370
    13
100
AcDbLine
 10
809.4216306470377
 20
96.08291163776367
 30
0.0
 11
809.9216306470377
 21
96.33291163776367
 31
0.0
  0
LINE
  5
471
330
462
100
AcDbEntity
  8
GR1_01
  6
Continuous
 62
     7
370
    13
100
AcDbLine
 10
810.6716306470377
 20
96.08291163776367
 30
0.0
 11
811.1716306470377
 21
96.33291163776367
 31
0.0
  0
LINE
  5
472
330
462
100
AcDbEntity
  8
GR1_01
  6
Continuous
 62
     7
370
    13
100
AcDbLine
 10
811.9216306470377
 20
96.08291163776367
 30
0.0
 11
812.4216306470377
 21
96.33291163776367
 31
0.0
  0
LINE
  5
473
330
462
100
AcDbEntity
  8
GR1_01
  6
Continuous
 62
     7
370
    13
100
AcDbLine
 10
813.1716306470377
 20
96.08291163776367
 30
0.0
 11
813.4142766513726
 21
96.20423463993119
 31
0.0
  0
LINE
  5
474
330
462
100
AcDbEntity
  8
GR1_01
  6
Continuous
 62
     7
370
    13
100
AcDbLine
 10
808.7966304361398
 20
96.39541151626484
 30
0.0
 11
809.2966304361398
 21
96.64541151626484
 31
0.0
  0
LINE
  5
475
330
462
100
AcDbEntity
  8
GR1_01
  6
Continuous
 62
     7
370
    13
100
AcDbLine
 10
810.0466304361398
 20
96.39541151626484
 30
0.0
 11
810.5466304361398
 21
96.64541151626484
 31
0.0
  0
LINE
  5
476
330
462
100
AcDbEntity
  8
GR1_01
  6
Continuous
 62
     7
370
    13
100
AcDbLine
 10
811.2966304361398
 20
96.39541151626484
 30
0.0
 11
811.7966304361398
 21
96.64541151626484
 31
0.0
  0
LINE
  5
477
330
462
100
AcDbEntity
  8
GR1_01
  6
Continuous
 62
     7
370
    13
100
AcDbLine
 10
812.5466304361398
 20
96.39541151626484
 30
0.0
 11
813.0466304361398
 21
96.64541151626484
 31
0.0
  0
LINE
  5
478
330
462
100
AcDbEntity
  8
GR1_01
  6
Continuous
 62
     7
370
    13
100
AcDbLine
 10
808.4142766513737
 20
96.82923460783182
 30
0.0
 11
808.6716302252421
 21
96.95791139476603
 31
0.0
  0
LINE
  5
479
330
462
100
AcDbEntity
  8
GR1_01
  6
Continuous
 62
     7
370
    13
100
AcDbLine
 10
809.4216302252421
 20
96.70791139476603
 30
0.0
 11
809.9216302252421
 21
96.95791139476603
 31
0.0
  0
LINE
  5
47A
330
462
100
AcDbEntity
  8
GR1_01
  6
Continuous
 62
     7
370
    13
100
AcDbLine
 10
810.6716302252421
 20
96.70791139476603
 30
0.0
 11
811.1716302252421
 21
96.95791139476603
 31
0.0
  0
LINE
  5
47B
330
462
100
AcDbEntity
  8
GR1_01
  6
Continuous
 62
     7
370
    13
100
AcDbLine
 10
811.9216302252421
 20
96.70791139476603
 30
0.0
 11
812.4216302252421
 21
96.95791139476603
 31
0.0
  0
LINE
  5
47C
330
462
100
AcDbEntity
  8
GR1_01
  6
Continuous
 62
     7
370
    13
100
AcDbLine
 10
813.1716302252421
 20
96.70791139476603
 30
0.0
 11
813.4142766513726
 21
96.82923460783132
 31
0.0
  0
LINE
  5
47D
330
462
100
AcDbEntity
  8
GR1_01
  6
Continuous
 62
     7
370
    13
100
AcDbLine
 10
808.796630014344
 20
97.0204112732672
 30
0.0
 11
809.296630014344
 21
97.2704112732672
 31
0.0
  0
LINE
  5
47E
330
462
100
AcDbEntity
  8
GR1_01
  6
Continuous
 62
     7
370
    13
100
AcDbLine
 10
810.046630014344
 20
97.0204112732672
 30
0.0
 11
810.546630014344
 21
97.2704112732672
 31
0.0
  0
LINE
  5
47F
330
462
100
AcDbEntity
  8
GR1_01
  6
Continuous
 62
     7
370
    13
100
AcDbLine
 10
811.296630014344
 20
97.0204112732672
 30
0.0
 11
811.796630014344
 21
97.2704112732672
 31
0.0
  0
LINE
  5
480
330
462
100
AcDbEntity
  8
GR1_01
  6
Continuous
 62
     7
370
    13
100
AcDbLine
 10
812.546630014344
 20
97.0204112732672
 30
0.0
 11
813.046630014344
 21
97.2704112732672
 31
0.0
  0
LINE
  5
481
330
462
100
AcDbEntity
  8
GR1_01
  6
Continuous
 62
     7
370
    13
100
AcDbLine
 10
809.4216298034464
 20
97.33291115176837
 30
0.0
 11
809.5466295604488
 21
97.39541103026953
 31
0.0
  0
LINE
  5
482
330
462
100
AcDbEntity
  8
GR1_01
  6
Continuous
 62
     7
370
    13
100
AcDbLine
 10
810.6716298034464
 20
97.33291115176837
 30
0.0
 11
810.7966295604488
 21
97.39541103026953
 31
0.0
  0
LINE
  5
483
330
462
100
AcDbEntity
  8
GR1_01
  6
Continuous
 62
     7
370
    13
100
AcDbLine
 10
811.9216298034464
 20
97.33291115176837
 30
0.0
 11
812.0466295604488
 21
97.39541103026953
 31
0.0
  0
LINE
  5
484
330
462
100
AcDbEntity
  8
GR1_01
  6
Continuous
 62
     7
370
    13
100
AcDbLine
 10
813.1716298034464
 20
97.33291115176837
 30
0.0
 11
813.2966295604488
 21
97.39541103026954
 31
0.0
  0
LINE
  5
485
330
462
100
AcDbEntity
  8
GR1_01
  6
Continuous
 62
     7
370
    13
100
AcDbLine
 10
808.7966308579355
 20
95.7704117592625
 30
0.0
 11
809.1936911394498
 21
95.5718816185053
 31
0.0
  0
LINE
  5
486
330
462
100
AcDbEntity
  8
GR1_01
  6
Continuous
 62
     7
370
    13
100
AcDbLine
 10
810.0466308579355
 20
95.7704117592625
 30
0.0
 11
810.4436911394498
 21
95.5718816185053
 31
0.0
  0
LINE
  5
487
330
462
100
AcDbEntity
  8
GR1_01
  6
Continuous
 62
     7
370
    13
100
AcDbLine
 10
811.2966308579355
 20
95.7704117592625
 30
0.0
 11
811.6936911394498
 21
95.5718816185053
 31
0.0
  0
LINE
  5
488
330
462
100
AcDbEntity
  8
GR1_01
  6
Continuous
 62
     7
370
    13
100
AcDbLine
 10
812.5466308579355
 20
95.7704117592625
 30
0.0
 11
812.9436911394498
 21
95.5718816185053
 31
0.0
  0
LINE
  5
489
330
462
100
AcDbEntity
  8
GR1_01
  6
Continuous
 62
     7
370
    13
100
AcDbLine
 10
808.4142766513737
 20
95.96158863559572
 30
0.0
 11
808.6716306470377
 21
95.83291163776367
 31
0.0
  0
LINE
  5
48A
330
462
100
AcDbEntity
  8
GR1_01
  6
Continuous
 62
     7
370
    13
100
AcDbLine
 10
809.4216306470377
 20
96.08291163776367
 30
0.0
 11
809.9216306470377
 21
95.83291163776367
 31
0.0
  0
LINE
  5
48B
330
462
100
AcDbEntity
  8
GR1_01
  6
Continuous
 62
     7
370
    13
100
AcDbLine
 10
810.6716306470377
 20
96.08291163776367
 30
0.0
 11
811.1716306470377
 21
95.83291163776367
 31
0.0
  0
LINE
  5
48C
330
462
100
AcDbEntity
  8
GR1_01
  6
Continuous
 62
     7
370
    13
100
AcDbLine
 10
811.9216306470377
 20
96.08291163776367
 30
0.0
 11
812.4216306470377
 21
95.83291163776367
 31
0.0
  0
LINE
  5
48D
330
462
100
AcDbEntity
  8
GR1_01
  6
Continuous
 62
     7
370
    13
100
AcDbLine
 10
813.1716306470377
 20
96.08291163776367
 30
0.0
 11
813.4142766513726
 21
95.9615886355962
 31
0.0
  0
LINE
  5
48E
330
462
100
AcDbEntity
  8
GR1_01
  6
Continuous
 62
     7
370
    13
100
AcDbLine
 10
808.7966304361398
 20
96.39541151626484
 30
0.0
 11
809.2966304361398
 21
96.14541151626484
 31
0.0
  0
LINE
  5
48F
330
462
100
AcDbEntity
  8
GR1_01
  6
Continuous
 62
     7
370
    13
100
AcDbLine
 10
810.0466304361398
 20
96.39541151626484
 30
0.0
 11
810.5466304361398
 21
96.14541151626484
 31
0.0
  0
LINE
  5
490
330
462
100
AcDbEntity
  8
GR1_01
  6
Continuous
 62
     7
370
    13
100
AcDbLine
 10
811.2966304361398
 20
96.39541151626484
 30
0.0
 11
811.7966304361398
 21
96.14541151626484
 31
0.0
  0
LINE
  5
491
330
462
100
AcDbEntity
  8
GR1_01
  6
Continuous
 62
     7
370
    13
100
AcDbLine
 10
812.5466304361398
 20
96.39541151626484
 30
0.0
 11
813.0466304361398
 21
96.14541151626484
 31
0.0
  0
LINE
  5
492
330
462
100
AcDbEntity
  8
GR1_01
  6
Continuous
 62
     7
370
    13
100
AcDbLine
 10
808.4142766513737
 20
96.58658818170022
 30
0.0
 11
808.6716302252421
 21
96.45791139476603
 31
0.0
  0
LINE
  5
493
330
462
100
AcDbEntity
  8
GR1_01
  6
Continuous
 62
     7
370
    13
100
AcDbLine
 10
809.4216302252421
 20
96.70791139476603
 30
0.0
 11
809.9216302252421
 21
96.45791139476603
 31
0.0
  0
LINE
  5
494
330
462
100
AcDbEntity
  8
GR1_01
  6
Continuous
 62
     7
370
    13
100
AcDbLine
 10
810.6716302252421
 20
96.70791139476603
 30
0.0
 11
811.1716302252421
 21
96.45791139476603
 31
0.0
  0
LINE
  5
495
330
462
100
AcDbEntity
  8
GR1_01
  6
Continuous
 62
     7
370
    13
100
AcDbLine
 10
811.9216302252421
 20
96.70791139476603
 30
0.0
 11
812.4216302252421
 21
96.45791139476603
 31
0.0
  0
LINE
  5
496
330
462
100
AcDbEntity
  8
GR1_01
  6
Continuous
 62
     7
370
    13
100
AcDbLine
 10
813.1716302252421
 20
96.70791139476603
 30
0.0
 11
813.4142766513726
 21
96.58658818170073
 31
0.0
  0
LINE
  5
497
330
462
100
AcDbEntity
  8
GR1_01
  6
Continuous
 62
     7
370
    13
100
AcDbLine
 10
808.796630014344
 20
97.0204112732672
 30
0.0
 11
809.296630014344
 21
96.7704112732672
 31
0.0
  0
LINE
  5
498
330
462
100
AcDbEntity
  8
GR1_01
  6
Continuous
 62
     7
370
    13
100
AcDbLine
 10
810.046630014344
 20
97.0204112732672
 30
0.0
 11
810.546630014344
 21
96.7704112732672
 31
0.0
  0
LINE
  5
499
330
462
100
AcDbEntity
  8
GR1_01
  6
Continuous
 62
     7
370
    13
100
AcDbLine
 10
811.296630014344
 20
97.0204112732672
 30
0.0
 11
811.796630014344
 21
96.7704112732672
 31
0.0
  0
LINE
  5
49A
330
462
100
AcDbEntity
  8
GR1_01
  6
Continuous
 62
     7
370
    13
100
AcDbLine
 10
812.546630014344
 20
97.0204112732672
 30
0.0
 11
813.046630014344
 21
96.7704112732672
 31
0.0
  0
LINE
  5
49B
330
462
100
AcDbEntity
  8
GR1_01
  6
Continuous
 62
     7
370
    13
100
AcDbLine
 10
808.4142766513737
 20
97.21158772780475
 30
0.0
 11
808.6716298034464
 21
97.08291115176837
 31
0.0
  0
LINE
  5
49C
330
462
100
AcDbEntity
  8
GR1_01
  6
Continuous
 62
     7
370
    13
100
AcDbLine
 10
809.4216298034464
 20
97.33291115176837
 30
0.0
 11
809.9216298034464
 21
97.08291115176837
 31
0.0
  0
LINE
  5
49D
330
462
100
AcDbEntity
  8
GR1_01
  6
Continuous
 62
     7
370
    13
100
AcDbLine
 10
810.6716298034464
 20
97.33291115176837
 30
0.0
 11
811.1716298034464
 21
97.08291115176837
 31
0.0
  0
LINE
  5
49E
330
462
100
AcDbEntity
  8
GR1_01
  6
Continuous
 62
     7
370
    13
100
AcDbLine
 10
811.9216298034464
 20
97.33291115176837
 30
0.0
 11
812.4216298034464
 21
97.08291115176837
 31
0.0
  0
LINE
  5
49F
330
462
100
AcDbEntity
  8
GR1_01
  6
Continuous
 62
     7
370
    13
100
AcDbLine
 10
813.1716298034464
 20
97.33291115176837
 30
0.0
 11
813.4142766513726
 21
97.21158772780525
 31
0.0
  0
LINE
  5
4A0
330
462
100
AcDbEntity
  8
GR1_01
  6
Continuous
 62
     7
370
    13
100
AcDbLine
 10
808.4142766513737
 20
95.70423465598158
 30
0.0
 11
808.5466308579355
 21
95.7704117592625
 31
0.0
  0
LINE
  5
4A1
330
462
100
AcDbEntity
  8
GR1_01
  6
Continuous
 62
     7
370
    13
100
AcDbLine
 10
809.3995705764212
 20
95.5718816185053
 30
0.0
 11
809.7966308579355
 21
95.7704117592625
 31
0.0
  0
LINE
  5
4A2
330
462
100
AcDbEntity
  8
GR1_01
  6
Continuous
 62
     7
370
    13
100
AcDbLine
 10
810.6495705764212
 20
95.5718816185053
 30
0.0
 11
811.0466308579355
 21
95.7704117592625
 31
0.0
  0
LINE
  5
4A3
330
462
100
AcDbEntity
  8
GR1_01
  6
Continuous
 62
     7
370
    13
100
AcDbLine
 10
811.8995705764212
 20
95.5718816185053
 30
0.0
 11
812.2966308579355
 21
95.7704117592625
 31
0.0
  0
LINE
  5
4A4
330
462
100
AcDbEntity
  8
GR1_01
  6
Continuous
 62
     7
370
    13
100
AcDbLine
 10
813.1495705764212
 20
95.5718816185053
 30
0.0
 11
813.4142766513726
 21
95.70423465598111
 31
0.0
  0
LINE
  5
4A5
330
462
100
AcDbEntity
  8
GR1_01
  6
Continuous
 62
     7
370
    13
100
AcDbLine
 10
808.6716306470377
 20
95.83291163776367
 30
0.0
 11
809.1716306470377
 21
96.08291163776367
 31
0.0
  0
LINE
  5
4A6
330
462
100
AcDbEntity
  8
GR1_01
  6
Continuous
 62
     7
370
    13
100
AcDbLine
 10
809.9216306470377
 20
95.83291163776367
 30
0.0
 11
810.4216306470377
 21
96.08291163776367
 31
0.0
  0
LINE
  5
4A7
330
462
100
AcDbEntity
  8
GR1_01
  6
Continuous
 62
     7
370
    13
100
AcDbLine
 10
811.1716306470377
 20
95.83291163776367
 30
0.0
 11
811.6716306470377
 21
96.08291163776367
 31
0.0
  0
LINE
  5
4A8
330
462
100
AcDbEntity
  8
GR1_01
  6
Continuous
 62
     7
370
    13
100
AcDbLine
 10
812.4216306470377
 20
95.83291163776367
 30
0.0
 11
812.9216306470377
 21
96.08291163776367
 31
0.0
  0
LINE
  5
4A9
330
462
100
AcDbEntity
  8
GR1_01
  6
Continuous
 62
     7
370
    13
100
AcDbLine
 10
808.4142766513737
 20
96.32923462388175
 30
0.0
 11
808.5466304361398
 21
96.39541151626484
 31
0.0
  0
LINE
  5
4AA
330
462
100
AcDbEntity
  8
GR1_01
  6
Continuous
 62
     7
370
    13
100
AcDbLine
 10
809.2966304361398
 20
96.14541151626484
 30
0.0
 11
809.7966304361398
 21
96.39541151626484
 31
0.0
  0
LINE
  5
4AB
330
462
100
AcDbEntity
  8
GR1_01
  6
Continuous
 62
     7
370
    13
100
AcDbLine
 10
810.5466304361398
 20
96.14541151626484
 30
0.0
 11
811.0466304361398
 21
96.39541151626484
 31
0.0
  0
LINE
  5
4AC
330
462
100
AcDbEntity
  8
GR1_01
  6
Continuous
 62
     7
370
    13
100
AcDbLine
 10
811.7966304361398
 20
96.14541151626484
 30
0.0
 11
812.2966304361398
 21
96.39541151626484
 31
0.0
  0
LINE
  5
4AD
330
462
100
AcDbEntity
  8
GR1_01
  6
Continuous
 62
     7
370
    13
100
AcDbLine
 10
813.0466304361398
 20
96.14541151626484
 30
0.0
 11
813.4142766513726
 21
96.32923462388126
 31
0.0
  0
LINE
  5
4AE
330
462
100
AcDbEntity
  8
GR1_01
  6
Continuous
 62
     7
370
    13
100
AcDbLine
 10
808.6716302252421
 20
96.45791139476603
 30
0.0
 11
809.1716302252421
 21
96.70791139476603
 31
0.0
  0
LINE
  5
4AF
330
462
100
AcDbEntity
  8
GR1_01
  6
Continuous
 62
     7
370
    13
100
AcDbLine
 10
809.9216302252421
 20
96.45791139476603
 30
0.0
 11
810.4216302252421
 21
96.70791139476603
 31
0.0
  0
LINE
  5
4B0
330
462
100
AcDbEntity
  8
GR1_01
  6
Continuous
 62
     7
370
    13
100
AcDbLine
 10
811.1716302252421
 20
96.45791139476603
 30
0.0
 11
811.6716302252421
 21
96.70791139476603
 31
0.0
  0
LINE
  5
4B1
330
462
100
AcDbEntity
  8
GR1_01
  6
Continuous
 62
     7
370
    13
100
AcDbLine
 10
812.4216302252421
 20
96.45791139476603
 30
0.0
 11
812.9216302252421
 21
96.70791139476603
 31
0.0
  0
LINE
  5
4B2
330
462
100
AcDbEntity
  8
GR1_01
  6
Continuous
 62
     7
370
    13
100
AcDbLine
 10
808.4142766513737
 20
96.95423459178197
 30
0.0
 11
808.546630014344
 21
97.0204112732672
 31
0.0
  0
LINE
  5
4B3
330
462
100
AcDbEntity
  8
GR1_01
  6
Continuous
 62
     7
370
    13
100
AcDbLine
 10
809.296630014344
 20
96.7704112732672
 30
0.0
 11
809.796630014344
 21
97.0204112732672
 31
0.0
  0
LINE
  5
4B4
330
462
100
AcDbEntity
  8
GR1_01
  6
Continuous
 62
     7
370
    13
100
AcDbLine
 10
810.546630014344
 20
96.7704112732672
 30
0.0
 11
811.046630014344
 21
97.0204112732672
 31
0.0
  0
LINE
  5
4B5
330
462
100
AcDbEntity
  8
GR1_01
  6
Continuous
 62
     7
370
    13
100
AcDbLine
 10
811.796630014344
 20
96.7704112732672
 30
0.0
 11
812.296630014344
 21
97.0204112732672
 31
0.0
  0
LINE
  5
4B6
330
462
100
AcDbEntity
  8
GR1_01
  6
Continuous
 62
     7
370
    13
100
AcDbLine
 10
813.046630014344
 20
96.7704112732672
 30
0.0
 11
813.4142766513726
 21
96.95423459178147
 31
0.0
  0
LINE
  5
4B7
330
462
100
AcDbEntity
  8
GR1_01
  6
Continuous
 62
     7
370
    13
100
AcDbLine
 10
808.6716298034464
 20
97.08291115176837
 30
0.0
 11
809.1716298034464
 21
97.33291115176837
 31
0.0
  0
LINE
  5
4B8
330
462
100
AcDbEntity
  8
GR1_01
  6
Continuous
 62
     7
370
    13
100
AcDbLine
 10
809.9216298034464
 20
97.08291115176837
 30
0.0
 11
810.4216298034464
 21
97.33291115176837
 31
0.0
  0
LINE
  5
4B9
330
462
100
AcDbEntity
  8
GR1_01
  6
Continuous
 62
     7
370
    13
100
AcDbLine
 10
811.1716298034464
 20
97.08291115176837
 30
0.0
 11
811.6716298034464
 21
97.33291115176837
 31
0.0
  0
LINE
  5
4BA
330
462
100
AcDbEntity
  8
GR1_01
  6
Continuous
 62
     7
370
    13
100
AcDbLine
 10
812.4216298034464
 20
97.08291115176837
 30
0.0
 11
812.9216298034464
 21
97.33291115176837
 31
0.0
  0
LINE
  5
4BB
330
462
100
AcDbEntity
  8
GR1_01
  6
Continuous
 62
     7
370
    13
100
AcDbLine
 10
808.6716310688333
 20
95.70791188076133
 30
0.0
 11
808.9436915933455
 21
95.5718816185053
 31
0.0
  0
LINE
  5
4BC
330
462
100
AcDbEntity
  8
GR1_01
  6
Continuous
 62
     7
370
    13
100
AcDbLine
 10
809.9216310688333
 20
95.70791188076133
 30
0.0
 11
810.1936915933455
 21
95.5718816185053
 31
0.0
  0
LINE
  5
4BD
330
462
100
AcDbEntity
  8
GR1_01
  6
Continuous
 62
     7
370
    13
100
AcDbLine
 10
811.1716310688333
 20
95.70791188076133
 30
0.0
 11
811.4436915933455
 21
95.5718816185053
 31
0.0
  0
LINE
  5
4BE
330
462
100
AcDbEntity
  8
GR1_01
  6
Continuous
 62
     7
370
    13
100
AcDbLine
 10
812.4216310688333
 20
95.70791188076133
 30
0.0
 11
812.6936915933455
 21
95.5718816185053
 31
0.0
  0
LINE
  5
4BF
330
462
100
AcDbEntity
  8
GR1_01
  6
Continuous
 62
     7
370
    13
100
AcDbLine
 10
808.4142766513737
 20
95.83658886254341
 30
0.0
 11
808.5466308579355
 21
95.7704117592625
 31
0.0
  0
LINE
  5
4C0
330
462
100
AcDbEntity
  8
GR1_01
  6
Continuous
 62
     7
370
    13
100
AcDbLine
 10
809.2966308579355
 20
96.0204117592625
 30
0.0
 11
809.7966308579355
 21
95.7704117592625
 31
0.0
  0
LINE
  5
4C1
330
462
100
AcDbEntity
  8
GR1_01
  6
Continuous
 62
     7
370
    13
100
AcDbLine
 10
810.5466308579355
 20
96.0204117592625
 30
0.0
 11
811.0466308579355
 21
95.7704117592625
 31
0.0
  0
LINE
  5
4C2
330
462
100
AcDbEntity
  8
GR1_01
  6
Continuous
 62
     7
370
    13
100
AcDbLine
 10
811.7966308579355
 20
96.0204117592625
 30
0.0
 11
812.2966308579355
 21
95.7704117592625
 31
0.0
  0
LINE
  5
4C3
330
462
100
AcDbEntity
  8
GR1_01
  6
Continuous
 62
     7
370
    13
100
AcDbLine
 10
813.0466308579355
 20
96.0204117592625
 30
0.0
 11
813.4142766513726
 21
95.83658886254392
 31
0.0
  0
LINE
  5
4C4
330
462
100
AcDbEntity
  8
GR1_01
  6
Continuous
 62
     7
370
    13
100
AcDbLine
 10
808.6716306470377
 20
96.33291163776367
 30
0.0
 11
809.1716306470377
 21
96.08291163776367
 31
0.0
  0
LINE
  5
4C5
330
462
100
AcDbEntity
  8
GR1_01
  6
Continuous
 62
     7
370
    13
100
AcDbLine
 10
809.9216306470377
 20
96.33291163776367
 30
0.0
 11
810.4216306470377
 21
96.08291163776367
 31
0.0
  0
LINE
  5
4C6
330
462
100
AcDbEntity
  8
GR1_01
  6
Continuous
 62
     7
370
    13
100
AcDbLine
 10
811.1716306470377
 20
96.33291163776367
 30
0.0
 11
811.6716306470377
 21
96.08291163776367
 31
0.0
  0
LINE
  5
4C7
330
462
100
AcDbEntity
  8
GR1_01
  6
Continuous
 62
     7
370
    13
100
AcDbLine
 10
812.4216306470377
 20
96.33291163776367
 30
0.0
 11
812.9216306470377
 21
96.08291163776367
 31
0.0
  0
LINE
  5
4C8
330
462
100
AcDbEntity
  8
GR1_01
  6
Continuous
 62
     7
370
    13
100
AcDbLine
 10
808.4142766513737
 20
96.46158840864794
 30
0.0
 11
808.5466304361398
 21
96.39541151626484
 31
0.0
  0
LINE
  5
4C9
330
462
100
AcDbEntity
  8
GR1_01
  6
Continuous
 62
     7
370
    13
100
AcDbLine
 10
809.2966304361398
 20
96.64541151626484
 30
0.0
 11
809.7966304361398
 21
96.39541151626484
 31
0.0
  0
LINE
  5
4CA
330
462
100
AcDbEntity
  8
GR1_01
  6
Continuous
 62
     7
370
    13
100
AcDbLine
 10
810.5466304361398
 20
96.64541151626484
 30
0.0
 11
811.0466304361398
 21
96.39541151626484
 31
0.0
  0
LINE
  5
4CB
330
462
100
AcDbEntity
  8
GR1_01
  6
Continuous
 62
     7
370
    13
100
AcDbLine
 10
811.7966304361398
 20
96.64541151626484
 30
0.0
 11
812.2966304361398
 21
96.39541151626484
 31
0.0
  0
LINE
  5
4CC
330
462
100
AcDbEntity
  8
GR1_01
  6
Continuous
 62
     7
370
    13
100
AcDbLine
 10
813.0466304361398
 20
96.64541151626484
 30
0.0
 11
813.4142766513726
 21
96.46158840864844
 31
0.0
  0
LINE
  5
4CD
330
462
100
AcDbEntity
  8
GR1_01
  6
Continuous
 62
     7
370
    13
100
AcDbLine
 10
808.6716302252421
 20
96.95791139476603
 30
0.0
 11
809.1716302252421
 21
96.70791139476603
 31
0.0
  0
LINE
  5
4CE
330
462
100
AcDbEntity
  8
GR1_01
  6
Continuous
 62
     7
370
    13
100
AcDbLine
 10
809.9216302252421
 20
96.95791139476603
 30
0.0
 11
810.4216302252421
 21
96.70791139476603
 31
0.0
  0
LINE
  5
4CF
330
462
100
AcDbEntity
  8
GR1_01
  6
Continuous
 62
     7
370
    13
100
AcDbLine
 10
811.1716302252421
 20
96.95791139476603
 30
0.0
 11
811.6716302252421
 21
96.70791139476603
 31
0.0
  0
LINE
  5
4D0
330
462
100
AcDbEntity
  8
GR1_01
  6
Continuous
 62
     7
370
    13
100
AcDbLine
 10
812.4216302252421
 20
96.95791139476603
 30
0.0
 11
812.9216302252421
 21
96.70791139476603
 31
0.0
  0
LINE
  5
4D1
330
462
100
AcDbEntity
  8
GR1_01
  6
Continuous
 62
     7
370
    13
100
AcDbLine
 10
808.4142766513737
 20
97.08658795475247
 30
0.0
 11
808.546630014344
 21
97.0204112732672
 31
0.0
  0
LINE
  5
4D2
330
462
100
AcDbEntity
  8
GR1_01
  6
Continuous
 62
     7
370
    13
100
AcDbLine
 10
809.296630014344
 20
97.2704112732672
 30
0.0
 11
809.796630014344
 21
97.0204112732672
 31
0.0
  0
LINE
  5
4D3
330
462
100
AcDbEntity
  8
GR1_01
  6
Continuous
 62
     7
370
    13
100
AcDbLine
 10
810.546630014344
 20
97.2704112732672
 30
0.0
 11
811.046630014344
 21
97.0204112732672
 31
0.0
  0
LINE
  5
4D4
330
462
100
AcDbEntity
  8
GR1_01
  6
Continuous
 62
     7
370
    13
100
AcDbLine
 10
811.796630014344
 20
97.2704112732672
 30
0.0
 11
812.296630014344
 21
97.0204112732672
 31
0.0
  0
LINE
  5
4D5
330
462
100
AcDbEntity
  8
GR1_01
  6
Continuous
 62
     7
370
    13
100
AcDbLine
 10
813.046630014344
 20
97.2704112732672
 30
0.0
 11
813.4142766513726
 21
97.08658795475294
 31
0.0
  0
LINE
  5
4D6
330
462
100
AcDbEntity
  8
GR1_01
  6
Continuous
 62
     7
370
    13
100
AcDbLine
 10
809.0466300464441
 20
97.39541103026953
 30
0.0
 11
809.1716298034464
 21
97.33291115176837
 31
0.0
  0
LINE
  5
4D7
330
462
100
AcDbEntity
  8
GR1_01
  6
Continuous
 62
     7
370
    13
100
AcDbLine
 10
810.2966300464441
 20
97.39541103026953
 30
0.0
 11
810.4216298034464
 21
97.33291115176837
 31
0.0
  0
LINE
  5
4D8
330
462
100
AcDbEntity
  8
GR1_01
  6
Continuous
 62
     7
370
    13
100
AcDbLine
 10
811.5466300464441
 20
97.39541103026953
 30
0.0
 11
811.6716298034464
 21
97.33291115176837
 31
0.0
  0
LINE
  5
4D9
330
462
100
AcDbEntity
  8
GR1_01
  6
Continuous
 62
     7
370
    13
100
AcDbLine
 10
812.7966300464441
 20
97.39541103026953
 30
0.0
 11
812.9216298034464
 21
97.33291115176837
 31
0.0
  0
ENDBLK
  5
464
330
462
100
AcDbEntity
  8
0
100
AcDbBlockEnd
  0
ENDSEC
  0
SECTION
  2
ENTITIES
  0
LINE
  5
E6
330
1A
100
AcDbEntity
  8
GR1_01
  6
Continuous
 62
     3
370
    35
100
AcDbLine
 10
915.8459631723163
 20
234.3603628775189
 30
0.0
 11
638.8459735971592
 21
234.3603628775189
 31
0.0
  0
LINE
  5
E7
330
1A
100
AcDbEntity
  8
GR1_01
  6
Continuous
 62
     3
370
    35
100
AcDbLine
 10
638.8459735971592
 20
234.3603628775189
 30
0.0
 11
638.8459583230394
 21
44.36036287751899
 31
0.0
  0
LINE
  5
E8
330
1A
100
AcDbEntity
  8
GR1_01
  6
Continuous
 62
     3
370
    35
100
AcDbLine
 10
638.8459583230394
 20
44.36036287751899
 30
0.0
 11
915.8459578017973
 21
44.36036287751895
 31
0.0
  0
LINE
  5
E9
330
1A
100
AcDbEntity
  8
GR1_01
  6
Continuous
 62
     3
370
    35
100
AcDbLine
 10
915.8459578017973
 20
44.36036287751895
 30
0.0
 11
915.8459631723163
 21
234.3603628775189
 31
0.0
  0
LINE
  5
EA
330
1A
100
AcDbEntity
  8
GR1_01
  6
Continuous
 62
     3
370
    35
100
AcDbLine
 10
914.8459631440505
 20
233.3603628775189
 30
0.0
 11
639.8459735167694
 21
233.360362877519
 31
0.0
  0
LINE
  5
EB
330
1A
100
AcDbEntity
  8
GR1_01
  6
Continuous
 62
     3
370
    35
100
AcDbLine
 10
639.8459735167694
 20
233.360362877519
 30
0.0
 11
639.8459584034297
 21
45.36036287751899
 31
0.0
  0
LINE
  5
EC
330
1A
100
AcDbEntity
  8
GR1_01
  6
Continuous
 62
     3
370
    35
100
AcDbLine
 10
639.8459584034297
 20
45.36036287751899
 30
0.0
 11
914.8459578300631
 21
45.36036287751895
 31
0.0
  0
LINE
  5
ED
330
1A
100
AcDbEntity
  8
GR1_01
  6
Continuous
 62
     3
370
    35
100
AcDbLine
 10
914.8459578300631
 20
45.36036287751895
 30
0.0
 11
914.8459631440505
 21
233.3603628775189
 31
0.0
  0
LINE
  5
EE
330
1A
100
AcDbEntity
  8
GR1_01
  6
Continuous
 62
     4
370
    25
100
AcDbLine
 10
836.7932121129081
 20
66.86116845022475
 30
0.0
 11
911.7932365269706
 21
66.86116845022475
 31
0.0
  0
LINE
  5
EF
330
1A
100
AcDbEntity
  8
GR1_01
  6
Continuous
 62
     4
370
    25
100
AcDbLine
 10
911.7932365269706
 20
60.86116845022475
 30
0.0
 11
836.7932121129081
 21
60.86116845022475
 31
0.0
  0
LINE
  5
F0
330
1A
100
AcDbEntity
  8
GR1_01
  6
Continuous
 62
     4
370
    25
100
AcDbLine
 10
836.7932121129081
 20
54.86117150198257
 30
0.0
 11
911.7932365269706
 21
54.86117150198257
 31
0.0
  0
LINE
  5
F1
330
1A
100
AcDbEntity
  8
GR1_01
  6
Continuous
 62
     4
370
    25
100
AcDbLine
 10
836.7932121129081
 20
48.86116997610365
 30
0.0
 11
836.7932121129081
 21
66.86116845022475
 31
0.0
  0
LINE
  5
F2
330
1A
100
AcDbEntity
  8
GR1_01
  6
Continuous
 62
     4
370
    25
100
AcDbLine
 10
851.7932121129081
 20
66.86116845022475
 30
0.0
 11
851.7932121129081
 21
54.86117150198257
 31
0.0
  0
LINE
  5
F3
330
1A
100
AcDbEntity
  8
GR1_01
  6
Continuous
 62
     4
370
    25
100
AcDbLine
 10
874.2932243199393
 20
54.86117150198257
 30
0.0
 11
874.2932243199393
 21
60.86116845022475
 31
0.0
  0
TEXT
  5
F5
330
1A
100
AcDbEntity
  8
GR1_01
  6
Continuous
 62
     7
370
    13
100
AcDbText
 10
841.7432617187501
 20
62.3568535082268
 30
0.0
 40
2.651515151515151
  1
図名
 41
0.7397802059467022
  7
STYLE003
 11
841.7432617187501
 21
63.68261108398438
 31
0.0
100
AcDbText
 73
     2
  0
TEXT
  5
F6
330
1A
100
AcDbEntity
  8
GR1_01
  6
Continuous
 62
     7
370
    13
100
AcDbText
 10
841.7432617187501
 20
56.32529833244555
 30
0.0
 40
2.651515151515151
  1
尺度
 41
0.7397802059467022
  7
STYLE003
 11
841.7432617187501
 21
57.65105590820313
 31
0.0
100
AcDbText
 73
     2
  0
TEXT
  5
F7
330
1A
100
AcDbEntity
  8
GR1_01
  6
Continuous
 62
     7
370
    13
100
AcDbText
 10
876.4431640625
 20
56.32529833244555
 30
0.0
 40
2.651515151515151
  1
参考重量
 41
0.7760439422104385
  7
STYLE003
 11
876.4431640625
 21
57.65105590820313
 31
0.0
100
AcDbText
 73
     2
  0
TEXT
  5
F8
330
1A
100
AcDbEntity
  8
GR1_01
  6
Continuous
 62
     7
370
    13
100
AcDbText
 10
854.9431640625
 20
50.2937431566643
 30
0.0
 40
2.651515151515151
  1
小倉セメント製品工業株式会社
 41
0.8019466109702503
  7
STYLE003
 11
854.9431640625
 21
51.61950073242188
 31
0.0
100
AcDbText
 73
     2
  0
LINE
  5
F9
330
1A
100
AcDbEntity
  8
GR1_01
  6
Continuous
 62
     4
370
    25
100
AcDbLine
 10
889.2932731480644
 20
60.86116845022475
 30
0.0
 11
889.2932731480644
 21
54.86117150198257
 31
0.0
  0
TEXT
  5
FA
330
1A
100
AcDbEntity
  8
GR1_01
  6
Continuous
 62
     7
370
    13
100
AcDbText
 10
858.4431640625
 20
56.48831102775805
 30
0.0
 40
2.651515151515151
  1
１／１０
 41
0.6672527334192297
  7
STYLE003
 11
858.4431640625
 21
57.81406860351563
 31
0.0
100
AcDbText
 73
     2
  0
TEXT
  5
FB
330
1A
100
AcDbEntity
  8
GR1_01
  6
Continuous
 62
     7
370
    13
100
AcDbText
 10
892.451953125
 20
56.32529833244555
 30
0.0
 40
2.651515151515151
  1
２３　ｋｇ
 41
0.6672527334192297
  7
STYLE003
 11
892.451953125
 21
57.65105590820313
 31
0.0
100
AcDbText
 73
     2
  0
TEXT
  5
FC
330
1A
100
AcDbEntity
  8
GR1_01
  6
Continuous
 62
     7
370
    13
100
AcDbText
 10
860.22509765625
 20
62.28311083244555
 30
0.0
 40
2.651515151515151
  1
カーストッパー（ＣＳ－１）
 41
0.6672527334192299
  7
STYLE003
 11
860.22509765625
 21
63.60886840820313
 31
0.0
100
AcDbText
 73
     2
  0
LINE
  5
FD
330
1A
100
AcDbEntity
  8
GR1_01
  6
Continuous
 62
     4
370
    25
100
AcDbLine
 10
911.7932365269706
 20
66.86116845022475
 30
0.0
 11
911.7932365269706
 21
48.86116997610365
 31
0.0
  0
LINE
  5
FE
330
1A
100
AcDbEntity
  8
GR1_01
  6
Continuous
 62
     4
370
    25
100
AcDbLine
 10
836.7932121129081
 20
48.86116997610366
 30
0.0
 11
911.7932365269706
 21
48.86116997610365
 31
0.0
  0
LINE
  5
FF
330
1A
100
AcDbEntity
  8
GR1_01
  6
Continuous
 62
     4
370
    25
100
AcDbLine
 10
758.8595064061772
 20
171.4127256689067
 30
0.0
 11
705.8595064061772
 21
171.4127256689068
 31
0.0
  0
LINE
  5
100
330
1A
100
AcDbEntity
  8
GR1_01
  6
Continuous
 62
     4
370
    25
100
AcDbLine
 10
702.8595064061769
 20
159.4127256689068
 30
0.0
 11
761.859506406177
 21
159.4127256689068
 31
0.0
  0
LINE
  5
101
330
1A
100
AcDbEntity
  8
GR1_01
  6
Continuous
 62
     4
370
    25
100
AcDbLine
 10
762.359506406177
 20
159.9127256689068
 30
0.0
 11
762.3595064061769
 21
162.9127256689068
 31
0.0
  0
LINE
  5
102
330
1A
100
AcDbEntity
  8
GR1_01
  6
Continuous
 62
     4
370
    25
100
AcDbLine
 10
702.359506406177
 20
162.9127256689068
 30
0.0
 11
762.3595064061769
 21
162.9127256689068
 31
0.0
  0
LINE
  5
103
330
1A
100
AcDbEntity
  8
GR1_01
  6
Continuous
 62
     4
370
    25
100
AcDbLine
 10
761.359506406177
 20
159.9127256689067
 30
0.0
 11
761.3595064061769
 21
162.9127256689068
 31
0.0
  0
LINE
  5
104
330
1A
100
AcDbEntity
  8
GR1_01
  6
Continuous
 62
     4
370
    25
100
AcDbLine
 10
762.359506406177
 20
159.9127256689068
 30
0.0
 11
761.859506406177
 21
159.4127256689068
 31
0.0
  0
LINE
  5
105
330
1A
100
AcDbEntity
  8
GR1_01
  6
Continuous
 62
     4
370
    25
100
AcDbLine
 10
762.3595064061769
 20
159.9127256689067
 30
0.0
 11
702.3595064061769
 21
159.9127256689068
 31
0.0
  0
LINE
  5
106
330
1A
100
AcDbEntity
  8
GR1_01
  6
Continuous
 62
     4
370
    25
100
AcDbLine
 10
761.359506406177
 20
159.9127256689067
 30
0.0
 11
761.859506406177
 21
159.4127256689068
 31
0.0
  0
LINE
  5
107
330
1A
100
AcDbEntity
  8
GR1_01
  6
Continuous
 62
     4
370
    25
100
AcDbLine
 10
823.3595064061769
 20
171.4127256689068
 30
0.0
 11
817.3595064061769
 21
171.4127256689068
 31
0.0
  0
LINE
  5
108
330
1A
100
AcDbEntity
  8
GR1_01
  6
Continuous
 62
     4
370
    25
100
AcDbLine
 10
807.8595064061769
 20
159.4127256689068
 30
0.0
 11
824.8595064061769
 21
159.4127256689068
 31
0.0
  0
LINE
  5
109
330
1A
100
AcDbEntity
  8
GR1_01
  6
Continuous
 62
     4
370
    25
100
AcDbLine
 10
825.3595064061769
 20
159.9127256689068
 30
0.0
 11
825.3595064061769
 21
162.9127256689068
 31
0.0
  0
LINE
  5
10A
330
1A
100
AcDbEntity
  8
GR1_01
  6
Continuous
 62
     4
370
    25
100
AcDbLine
 10
809.510604482395
 20
162.9127256689068
 30
0.0
 11
825.3595064061769
 21
162.9127256689068
 31
0.0
  0
LINE
  5
10B
330
1A
100
AcDbEntity
  8
GR1_01
  6
Continuous
 62
     4
370
    25
100
AcDbLine
 10
825.3595064061769
 20
162.9127256689068
 30
0.0
 11
823.3595064061769
 21
171.4127256689068
 31
0.0
  0
LINE
  5
10C
330
1A
100
AcDbEntity
  8
GR1_01
  6
Continuous
 62
     4
370
    25
100
AcDbLine
 10
807.3595064061769
 20
162.9127256689068
 30
0.0
 11
807.3595064061769
 21
159.9127256689068
 31
0.0
  0
LINE
  5
10D
330
1A
100
AcDbEntity
  8
GR1_01
  6
Continuous
 62
     4
370
    25
100
AcDbLine
 10
824.332197629908
 20
162.9127256689068
 30
0.0
 11
822.532552097819
 21
170.561219180285
 31
0.0
  0
LINE
  5
10E
330
1A
100
AcDbEntity
  8
GR1_01
  6
Continuous
 62
     4
370
    25
100
AcDbLine
 10
824.3595064061769
 20
159.9127256689068
 30
0.0
 11
824.3595064061769
 21
162.9127256689068
 31
0.0
  0
LINE
  5
10F
330
1A
100
AcDbEntity
  8
GR1_01
  6
Continuous
 62
     4
370
    25
100
AcDbLine
 10
808.3595064061769
 20
162.2913490454916
 30
0.0
 11
808.3595064061769
 21
159.9127256689068
 31
0.0
  0
LINE
  5
110
330
1A
100
AcDbEntity
  8
GR1_01
  6
Continuous
 62
     4
370
    25
100
AcDbLine
 10
807.3595064061769
 20
159.9127256689068
 30
0.0
 11
825.3595064061769
 21
159.9127256689068
 31
0.0
  0
LINE
  5
111
330
1A
100
AcDbEntity
  8
GR1_01
  6
Continuous
 62
     4
370
    25
100
AcDbLine
 10
825.3595064061769
 20
159.9127256689068
 30
0.0
 11
824.8595064061769
 21
159.4127256689068
 31
0.0
  0
LINE
  5
112
330
1A
100
AcDbEntity
  8
GR1_01
  6
Continuous
 62
     4
370
    25
100
AcDbLine
 10
807.3595064061769
 20
159.9127256689068
 30
0.0
 11
807.8595064061769
 21
159.4127256689068
 31
0.0
  0
LINE
  5
113
330
1A
100
AcDbEntity
  8
GR1_01
  6
Continuous
 62
     4
370
    25
100
AcDbLine
 10
808.3595064061769
 20
159.9127256689068
 30
0.0
 11
807.8595064061769
 21
159.4127256689068
 31
0.0
  0
LINE
  5
114
330
1A
100
AcDbEntity
  8
GR1_01
  6
Continuous
 62
     4
370
    25
100
AcDbLine
 10
824.3595064061769
 20
159.9127256689068
 30
0.0
 11
824.8595064061769
 21
159.4127256689068
 31
0.0
  0
ARC
  5
115
330
1A
100
AcDbEntity
  8
GR1_01
  6
Continuous
 62
     4
370
    25
100
AcDbCircle
 10
796.2292510492089
 20
186.1394966771045
 30
0.0
 40
25.75588235294165
100
AcDbArc
 50
295.6037140647809
 51
325.1253590814143
  0
ARC
  5
116
330
1A
100
AcDbEntity
  8
GR1_01
  6
Continuous
 62
     4
370
    25
100
AcDbCircle
 10
796.2292510492089
 20
186.1394966771045
 30
0.0
 40
26.75588235294165
100
AcDbArc
 50
296.959964302669
 51
324.3919306191945
  0
LINE
  5
117
330
1A
100
AcDbEntity
  8
GR1_01
  6
Continuous
 62
     4
370
    25
100
AcDbLine
 10
807.3595064061769
 20
162.9127256689068
 30
0.0
 11
808.3595064061769
 21
162.2913490454916
 31
0.0
  0
LINE
  5
118
330
1A
100
AcDbEntity
  8
GR1_01
  6
Continuous
 62
     4
370
    25
100
AcDbLine
 10
761.3595064061772
 20
121.9127256689068
 30
0.0
 11
703.3595064061772
 21
121.9127256689068
 31
0.0
  0
LINE
  5
119
330
1A
100
AcDbEntity
  8
GR1_01
  6
Continuous
 62
     4
370
    25
100
AcDbLine
 10
703.3595064061772
 20
103.9127256689068
 30
0.0
 11
761.3595064061772
 21
103.9127256689068
 31
0.0
  0
LINE
  5
11A
330
1A
100
AcDbEntity
  8
GR1_01
  6
Continuous
 62
     4
370
    25
100
AcDbLine
 10
762.3595064061772
 20
104.9127256689068
 30
0.0
 11
762.359506406177
 21
120.9127256689067
 31
0.0
  0
LINE
  5
11B
330
1A
100
AcDbEntity
  8
GR1_01
  6
Continuous
 62
     4
370
    25
100
AcDbLine
 10
758.8595064061769
 20
119.9127256689068
 30
0.0
 11
705.8595064061774
 21
119.9127256689068
 31
0.0
  0
LINE
  5
11C
330
1A
100
AcDbEntity
  8
GR1_01
  6
Continuous
 62
     4
370
    25
100
AcDbLine
 10
758.8595064061769
 20
113.9127256689068
 30
0.0
 11
705.8595064061774
 21
113.9127256689068
 31
0.0
  0
LINE
  5
11D
330
1A
100
AcDbEntity
  8
GR1_01
  6
Continuous
 62
     4
370
    25
100
AcDbLine
 10
758.8595064061769
 20
171.4127256689067
 30
0.0
 11
759.9975220452457
 21
170.561219180285
 31
0.0
  0
ARC
  5
11E
330
1A
100
AcDbEntity
  8
GR1_01
  6
Continuous
 62
     4
370
    25
100
AcDbCircle
 10
790.5234884382826
 20
176.1080145018795
 30
0.0
 40
32.01020923634447
100
AcDbArc
 50
188.434633107545
 51
204.344447560526
  0
ARC
  5
11F
330
1A
100
AcDbEntity
  8
GR1_01
  6
Continuous
 62
     4
370
    25
100
AcDbCircle
 10
791.5234884382826
 20
176.1080145018795
 30
0.0
 40
32.01020923634447
100
AcDbArc
 50
189.9787006855079
 51
204.344447560526
  0
LINE
  5
120
330
1A
100
AcDbEntity
  8
GR1_01
  6
Continuous
 62
     4
370
    25
100
AcDbLine
 10
817.9822855666398
 20
170.561219180285
 30
0.0
 11
822.532552097819
 21
170.561219180285
 31
0.0
  0
LINE
  5
121
330
1A
100
AcDbEntity
  8
GR1_01
  6
Continuous
 62
     4
370
    25
100
AcDbLine
 10
823.3595064061769
 20
171.4127256689068
 30
0.0
 11
822.5325520978188
 21
170.561219180285
 31
0.0
  0
LINE
  5
122
330
1A
100
AcDbEntity
  8
GR1_01
  6
Continuous
 62
     4
370
    25
100
AcDbLine
 10
817.3595064061769
 20
171.4127256689068
 30
0.0
 11
817.9822855666398
 21
170.561219180285
 31
0.0
  0
LINE
  5
123
330
1A
100
AcDbEntity
  8
GR1_01
  6
Continuous
 62
     4
370
    25
100
AcDbLine
 10
702.3595064061769
 20
159.9127256689068
 30
0.0
 11
702.3595064061769
 21
162.9127256689068
 31
0.0
  0
LINE
  5
124
330
1A
100
AcDbEntity
  8
GR1_01
  6
Continuous
 62
     4
370
    25
100
AcDbLine
 10
703.3595064061769
 20
159.9127256689067
 30
0.0
 11
703.3595064061769
 21
162.9127256689068
 31
0.0
  0
LINE
  5
125
330
1A
100
AcDbEntity
  8
GR1_01
  6
Continuous
 62
     4
370
    25
100
AcDbLine
 10
702.3595064061769
 20
159.9127256689068
 30
0.0
 11
702.8595064061769
 21
159.4127256689068
 31
0.0
  0
LINE
  5
126
330
1A
100
AcDbEntity
  8
GR1_01
  6
Continuous
 62
     4
370
    25
100
AcDbLine
 10
703.3595064061769
 20
159.9127256689067
 30
0.0
 11
702.8595064061769
 21
159.4127256689068
 31
0.0
  0
LINE
  5
127
330
1A
100
AcDbEntity
  8
GR1_01
  6
Continuous
 62
     4
370
    25
100
AcDbLine
 10
705.859506406177
 20
171.4127256689067
 30
0.0
 11
704.7214907671083
 21
170.561219180285
 31
0.0
  0
ARC
  5
128
330
1A
100
AcDbEntity
  8
GR1_01
  6
Continuous
 62
     4
370
    25
100
AcDbCircle
 10
674.1955243740714
 20
176.1080145018795
 30
0.0
 40
32.01020923634447
100
AcDbArc
 50
335.655552439474
 51
351.5653668924548
  0
ARC
  5
129
330
1A
100
AcDbEntity
  8
GR1_01
  6
Continuous
 62
     4
370
    25
100
AcDbCircle
 10
673.1955243740714
 20
176.1080145018795
 30
0.0
 40
32.01020923634447
100
AcDbArc
 50
335.655552439474
 51
350.0212993144922
  0
LINE
  5
12A
330
1A
100
AcDbEntity
  8
GR1_01
  6
Continuous
 62
     4
370
    25
100
AcDbLine
 10
758.8595064061769
 20
113.9127256689068
 30
0.0
 11
758.8595064061769
 21
119.9127256689068
 31
0.0
  0
LINE
  5
12B
330
1A
100
AcDbEntity
  8
GR1_01
  6
Continuous
 62
     4
370
    25
100
AcDbLine
 10
759.9975220452457
 20
114.5472974856377
 30
0.0
 11
759.9975220452457
 21
119.0231381801619
 31
0.0
  0
LINE
  5
12C
330
1A
100
AcDbEntity
  8
GR1_01
  6
Continuous
 62
     4
370
    25
100
AcDbLine
 10
761.3595064061772
 20
121.9127256689068
 30
0.0
 11
762.3595064061772
 21
120.9127256689068
 31
0.0
  0
LINE
  5
12D
330
1A
100
AcDbEntity
  8
GR1_01
  6
Continuous
 62
     4
370
    25
100
AcDbLine
 10
758.8595064061769
 20
119.9127256689068
 30
0.0
 11
761.3595064061772
 21
121.9127256689068
 31
0.0
  0
LINE
  5
12E
330
1A
100
AcDbEntity
  8
GR1_01
  6
Continuous
 62
     4
370
    25
100
AcDbLine
 10
759.9975220452458
 20
119.0231381801619
 30
0.0
 11
762.3595064061772
 21
120.9127256689068
 31
0.0
  0
LINE
  5
12F
330
1A
100
AcDbEntity
  8
GR1_01
  6
Continuous
 62
     4
370
    25
100
AcDbLine
 10
758.8595064061769
 20
119.9127256689068
 30
0.0
 11
759.9975220452458
 21
119.0231381801619
 31
0.0
  0
LINE
  5
130
330
1A
100
AcDbEntity
  8
GR1_01
  6
Continuous
 62
     4
370
    25
100
AcDbLine
 10
762.3595064061772
 20
104.9127256689068
 30
0.0
 11
761.3595064061772
 21
103.9127256689068
 31
0.0
  0
ARC
  5
131
330
1A
100
AcDbEntity
  8
GR1_01
  6
Continuous
 62
     4
370
    25
100
AcDbCircle
 10
718.8873585815469
 20
98.60718871274817
 30
0.0
 40
42.80224367051817
100
AcDbArc
 50
7.120391915383149
 51
20.95209502047279
  0
ARC
  5
132
330
1A
100
AcDbEntity
  8
GR1_01
  6
Continuous
 62
     4
370
    25
100
AcDbCircle
 10
719.8873585815468
 20
99.60718871274808
 30
0.0
 40
42.80224367051817
100
AcDbArc
 50
7.120391915383149
 51
20.42919934080377
  0
LINE
  5
133
330
1A
100
AcDbEntity
  8
GR1_01
  6
Continuous
 62
     4
370
    25
100
AcDbLine
 10
758.8595064061769
 20
113.9127256689068
 30
0.0
 11
759.9975220452457
 21
114.5472974856378
 31
0.0
  0
LINE
  5
134
330
1A
100
AcDbEntity
  8
GR1_01
  6
Continuous
 62
     4
370
    25
100
AcDbLine
 10
702.3595064061772
 20
104.9127256689068
 30
0.0
 11
702.359506406177
 21
120.9127256689067
 31
0.0
  0
LINE
  5
135
330
1A
100
AcDbEntity
  8
GR1_01
  6
Continuous
 62
     4
370
    25
100
AcDbLine
 10
705.8595064061774
 20
113.9127256689068
 30
0.0
 11
705.8595064061774
 21
119.9127256689068
 31
0.0
  0
LINE
  5
136
330
1A
100
AcDbEntity
  8
GR1_01
  6
Continuous
 62
     4
370
    25
100
AcDbLine
 10
704.7214907671087
 20
114.5472974856377
 30
0.0
 11
704.7214907671087
 21
119.0231381801619
 31
0.0
  0
LINE
  5
137
330
1A
100
AcDbEntity
  8
GR1_01
  6
Continuous
 62
     4
370
    25
100
AcDbLine
 10
703.3595064061772
 20
121.9127256689068
 30
0.0
 11
702.3595064061772
 21
120.9127256689068
 31
0.0
  0
LINE
  5
138
330
1A
100
AcDbEntity
  8
GR1_01
  6
Continuous
 62
     4
370
    25
100
AcDbLine
 10
705.8595064061774
 20
119.9127256689068
 30
0.0
 11
703.3595064061772
 21
121.9127256689068
 31
0.0
  0
LINE
  5
139
330
1A
100
AcDbEntity
  8
GR1_01
  6
Continuous
 62
     4
370
    25
100
AcDbLine
 10
704.7214907671085
 20
119.0231381801619
 30
0.0
 11
702.3595064061772
 21
120.9127256689068
 31
0.0
  0
LINE
  5
13A
330
1A
100
AcDbEntity
  8
GR1_01
  6
Continuous
 62
     4
370
    25
100
AcDbLine
 10
705.8595064061774
 20
119.9127256689068
 30
0.0
 11
704.7214907671085
 21
119.0231381801619
 31
0.0
  0
LINE
  5
13B
330
1A
100
AcDbEntity
  8
GR1_01
  6
Continuous
 62
     4
370
    25
100
AcDbLine
 10
702.3595064061772
 20
104.9127256689068
 30
0.0
 11
703.3595064061772
 21
103.9127256689068
 31
0.0
  0
ARC
  5
13C
330
1A
100
AcDbEntity
  8
GR1_01
  6
Continuous
 62
     4
370
    25
100
AcDbCircle
 10
745.8316542308074
 20
98.60718871274817
 30
0.0
 40
42.80224367051817
100
AcDbArc
 50
159.0479049795272
 51
172.8796080846168
  0
ARC
  5
13D
330
1A
100
AcDbEntity
  8
GR1_01
  6
Continuous
 62
     4
370
    25
100
AcDbCircle
 10
744.8316542308075
 20
99.60718871274808
 30
0.0
 40
42.80224367051817
100
AcDbArc
 50
159.5708006591962
 51
172.8796080846168
  0
LINE
  5
13E
330
1A
100
AcDbEntity
  8
GR1_01
  6
Continuous
 62
     4
370
    25
100
AcDbLine
 10
705.8595064061774
 20
113.9127256689068
 30
0.0
 11
704.7214907671087
 21
114.5472974856378
 31
0.0
  0
CIRCLE
  5
13F
330
1A
100
AcDbEntity
  8
GR1_01
  6
Continuous
 62
     4
370
    25
100
AcDbCircle
 10
754.3595064061772
 20
116.9127256689068
 30
0.0
 40
0.675
  0
CIRCLE
  5
140
330
1A
100
AcDbEntity
  8
GR1_01
  6
Continuous
 62
     7
370
    13
100
AcDbCircle
 10
754.3595064061772
 20
116.9127256689068
 30
0.0
 40
2.1
  0
CIRCLE
  5
141
330
1A
100
AcDbEntity
  8
GR1_01
  6
Continuous
 62
     7
370
    13
100
AcDbCircle
 10
754.3595064061772
 20
116.9127256689068
 30
0.0
 40
2.275
  0
CIRCLE
  5
142
330
1A
100
AcDbEntity
  8
GR1_01
  6
Continuous
 62
     4
370
    25
100
AcDbCircle
 10
710.3595064061772
 20
116.9127256689068
 30
0.0
 40
0.675
  0
CIRCLE
  5
143
330
1A
100
AcDbEntity
  8
GR1_01
  6
Continuous
 62
     7
370
    13
100
AcDbCircle
 10
710.3595064061772
 20
116.9127256689068
 30
0.0
 40
2.1
  0
CIRCLE
  5
144
330
1A
100
AcDbEntity
  8
GR1_01
  6
Continuous
 62
     7
370
    13
100
AcDbCircle
 10
710.3595064061772
 20
116.9127256689068
 30
0.0
 40
2.275
  0
LINE
  5
145
330
1A
100
AcDbEntity
  8
GR1_01
  6
Continuous
 62
     4
370
    25
100
AcDbLine
 10
822.3969035122608
 20
166.6127256689067
 30
0.0
 11
815.6969035122607
 21
166.6127256689067
 31
0.0
  0
LINE
  5
146
330
1A
100
AcDbEntity
  8
GR1_01
  6
Continuous
 62
     4
370
    25
100
AcDbLine
 10
815.6969035122607
 20
166.6127256689067
 30
0.0
 11
815.6969035122607
 21
163.9127256689067
 31
0.0
  0
LINE
  5
147
330
1A
100
AcDbEntity
  8
GR1_01
  6
Continuous
 62
     4
370
    25
100
AcDbLine
 10
815.6969035122607
 20
163.9127256689067
 30
0.0
 11
822.3969035122608
 21
163.9127256689067
 31
0.0
  0
LINE
  5
148
330
1A
100
AcDbEntity
  8
GR1_01
  6
Continuous
 62
     4
370
    25
100
AcDbLine
 10
822.3969035122608
 20
163.9127256689067
 30
0.0
 11
822.3969035122608
 21
166.6127256689067
 31
0.0
  0
LINE
  5
149
330
1A
100
AcDbEntity
  8
GR1_01
  6
Continuous
 62
     4
370
    25
100
AcDbLine
 10
821.9969035122608
 20
166.2127256689067
 30
0.0
 11
816.0969035122607
 21
166.2127256689067
 31
0.0
  0
LINE
  5
14A
330
1A
100
AcDbEntity
  8
GR1_01
  6
Continuous
 62
     4
370
    25
100
AcDbLine
 10
816.0969035122607
 20
166.2127256689067
 30
0.0
 11
816.0969035122607
 21
164.3127256689067
 31
0.0
  0
LINE
  5
14B
330
1A
100
AcDbEntity
  8
GR1_01
  6
Continuous
 62
     4
370
    25
100
AcDbLine
 10
821.9969035122608
 20
164.3127256689067
 30
0.0
 11
821.9969035122608
 21
166.2127256689067
 31
0.0
  0
LINE
  5
14C
330
1A
100
AcDbEntity
  8
GR1_01
  6
Continuous
 62
     4
370
    25
100
AcDbLine
 10
816.0969035122607
 20
164.3127256689067
 30
0.0
 11
821.9969035122608
 21
164.3127256689067
 31
0.0
  0
LINE
  5
14D
330
1A
100
AcDbEntity
  8
GR1_01
  6
Continuous
 62
     4
370
    25
100
AcDbLine
 10
822.3969035122608
 20
166.6127256689067
 30
0.0
 11
821.9969035122609
 21
166.2127256689067
 31
0.0
  0
LINE
  5
14E
330
1A
100
AcDbEntity
  8
GR1_01
  6
Continuous
 62
     4
370
    25
100
AcDbLine
 10
815.6969035122607
 20
166.6127256689067
 30
0.0
 11
816.096903512261
 21
166.2127256689067
 31
0.0
  0
LINE
  5
14F
330
1A
100
AcDbEntity
  8
GR1_01
  6
Continuous
 62
     4
370
    25
100
AcDbLine
 10
816.096903512261
 20
164.3127256689068
 30
0.0
 11
815.6969035122607
 21
163.9127256689067
 31
0.0
  0
LINE
  5
150
330
1A
100
AcDbEntity
  8
GR1_01
  6
Continuous
 62
     4
370
    25
100
AcDbLine
 10
821.9969035122609
 20
164.3127256689067
 30
0.0
 11
822.3969035122608
 21
163.9127256689067
 31
0.0
  0
LINE
  5
151
330
1A
100
AcDbEntity
  8
GR1_01
  6
Continuous
 62
     7
370
    13
100
AcDbLine
 10
749.7407220047485
 20
170.9127256689068
 30
0.0
 11
714.9782908076058
 21
170.9127256689068
 31
0.0
  0
LINE
  5
152
330
1A
100
AcDbEntity
  8
GR1_01
  6
Continuous
 62
     7
370
    13
100
AcDbLine
 10
715.7414487023424
 20
168.5127256689068
 30
0.0
 11
748.9775641100116
 21
168.5127256689068
 31
0.0
  0
LINE
  5
153
330
1A
100
AcDbEntity
  8
GR1_01
  6
Continuous
 62
     7
370
    13
100
AcDbLine
 10
747.2604588468538
 20
168.3127256689068
 30
0.0
 11
717.4585539655004
 21
168.3127256689068
 31
0.0
  0
LINE
  5
154
330
1A
100
AcDbEntity
  8
GR1_01
  6
Continuous
 62
     7
370
    13
100
AcDbLine
 10
718.2217118602372
 20
165.9127256689068
 30
0.0
 11
746.4973009521169
 21
165.9127256689068
 31
0.0
  0
LINE
  5
155
330
1A
100
AcDbEntity
  8
GR1_01
  6
Continuous
 62
     7
370
    13
100
AcDbLine
 10
744.780195688959
 20
165.7127256689068
 30
0.0
 11
719.938817123395
 21
165.7127256689068
 31
0.0
  0
LINE
  5
156
330
1A
100
AcDbEntity
  8
GR1_01
  6
Continuous
 62
     7
370
    13
100
AcDbLine
 10
720.7019750181319
 20
163.3127256689068
 30
0.0
 11
744.0170377942222
 21
163.3127256689068
 31
0.0
  0
LINE
  5
157
330
1A
100
AcDbEntity
  8
GR1_01
  6
Continuous
 62
     7
370
    13
100
AcDbLine
 10
750.3195793278377
 20
169.5605262488546
 30
0.0
 11
749.5564214331007
 21
168.7605262488545
 31
0.0
  0
LINE
  5
158
330
1A
100
AcDbEntity
  8
GR1_01
  6
Continuous
 62
     7
370
    13
100
AcDbLine
 10
747.8393161699429
 20
166.9605262488545
 30
0.0
 11
747.0761582752061
 21
166.1605262488546
 31
0.0
  0
LINE
  5
159
330
1A
100
AcDbEntity
  8
GR1_01
  6
Continuous
 62
     7
370
    13
100
AcDbLine
 10
745.3590530120482
 20
164.3605262488545
 30
0.0
 11
744.5958951173116
 21
163.5605262488546
 31
0.0
  0
LINE
  5
15A
330
1A
100
AcDbEntity
  8
GR1_01
  6
Continuous
 62
     7
370
    13
100
AcDbLine
 10
714.3994334845165
 20
169.5605262488545
 30
0.0
 11
715.1625913792532
 21
168.7605262488546
 31
0.0
  0
LINE
  5
15B
330
1A
100
AcDbEntity
  8
GR1_01
  6
Continuous
 62
     7
370
    13
100
AcDbLine
 10
716.8796966424112
 20
166.9605262488546
 30
0.0
 11
717.6428545371481
 21
166.1605262488546
 31
0.0
  0
LINE
  5
15C
330
1A
100
AcDbEntity
  8
GR1_01
  6
Continuous
 62
     7
370
    13
100
AcDbLine
 10
719.3599598003058
 20
164.3605262488546
 30
0.0
 11
720.1231176950428
 21
163.5605262488546
 31
0.0
  0
LINE
  5
15D
330
1A
100
AcDbEntity
  8
GR1_01
  6
Continuous
 62
     7
370
    13
100
AcDbLine
 10
748.359506406177
 20
170.0877256689068
 30
0.0
 11
716.359506406177
 21
170.0877256689068
 31
0.0
  0
LINE
  5
15E
330
1A
100
AcDbEntity
  8
GR1_01
  6
Continuous
 62
     7
370
    13
100
AcDbLine
 10
716.359506406177
 20
170.0877256689068
 30
0.0
 11
716.359506406177
 21
169.3377256689068
 31
0.0
  0
LINE
  5
15F
330
1A
100
AcDbEntity
  8
GR1_01
  6
Continuous
 62
     7
370
    13
100
AcDbLine
 10
716.359506406177
 20
169.3377256689068
 30
0.0
 11
748.359506406177
 21
169.3377256689068
 31
0.0
  0
LINE
  5
160
330
1A
100
AcDbEntity
  8
GR1_01
  6
Continuous
 62
     7
370
    13
100
AcDbLine
 10
748.359506406177
 20
169.3377256689068
 30
0.0
 11
748.359506406177
 21
170.0877256689068
 31
0.0
  0
LINE
  5
161
330
1A
100
AcDbEntity
  8
GR1_01
  6
Continuous
 62
     7
370
    13
100
AcDbLine
 10
748.1595064061771
 20
169.7127256689068
 30
0.0
 11
716.5595064061771
 21
169.7127256689068
 31
0.0
  0
LINE
  5
162
330
1A
100
AcDbEntity
  8
GR1_01
  6
Continuous
 62
     7
370
    13
100
AcDbLine
 10
748.359506406177
 20
170.0877256689068
 30
0.0
 11
748.1595064061771
 21
169.7127256689068
 31
0.0
  0
LINE
  5
163
330
1A
100
AcDbEntity
  8
GR1_01
  6
Continuous
 62
     7
370
    13
100
AcDbLine
 10
748.1595064061771
 20
169.7127256689068
 30
0.0
 11
748.359506406177
 21
169.3377256689068
 31
0.0
  0
LINE
  5
164
330
1A
100
AcDbEntity
  8
GR1_01
  6
Continuous
 62
     7
370
    13
100
AcDbLine
 10
716.359506406177
 20
170.0877256689068
 30
0.0
 11
716.5595064061771
 21
169.7127256689068
 31
0.0
  0
LINE
  5
165
330
1A
100
AcDbEntity
  8
GR1_01
  6
Continuous
 62
     7
370
    13
100
AcDbLine
 10
716.5595064061771
 20
169.7127256689068
 30
0.0
 11
716.359506406177
 21
169.3377256689068
 31
0.0
  0
LINE
  5
166
330
1A
100
AcDbEntity
  8
GR1_01
  6
Continuous
 62
     7
370
    13
100
AcDbLine
 10
745.8792432482823
 20
167.4877256689068
 30
0.0
 11
718.839769564072
 21
167.4877256689068
 31
0.0
  0
LINE
  5
167
330
1A
100
AcDbEntity
  8
GR1_01
  6
Continuous
 62
     7
370
    13
100
AcDbLine
 10
718.839769564072
 20
166.7377256689068
 30
0.0
 11
745.8792432482823
 21
166.7377256689068
 31
0.0
  0
LINE
  5
168
330
1A
100
AcDbEntity
  8
GR1_01
  6
Continuous
 62
     7
370
    13
100
AcDbLine
 10
745.8792432482823
 20
166.7377256689068
 30
0.0
 11
745.8792432482823
 21
167.4877256689068
 31
0.0
  0
LINE
  5
169
330
1A
100
AcDbEntity
  8
GR1_01
  6
Continuous
 62
     7
370
    13
100
AcDbLine
 10
745.6792432482822
 20
167.1127256689068
 30
0.0
 11
719.0397695640719
 21
167.1127256689068
 31
0.0
  0
LINE
  5
16A
330
1A
100
AcDbEntity
  8
GR1_01
  6
Continuous
 62
     7
370
    13
100
AcDbLine
 10
745.8792432482823
 20
167.4877256689068
 30
0.0
 11
745.6792432482822
 21
167.1127256689068
 31
0.0
  0
LINE
  5
16B
330
1A
100
AcDbEntity
  8
GR1_01
  6
Continuous
 62
     7
370
    13
100
AcDbLine
 10
745.6792432482822
 20
167.1127256689068
 30
0.0
 11
745.8792432482823
 21
166.7377256689068
 31
0.0
  0
LINE
  5
16C
330
1A
100
AcDbEntity
  8
GR1_01
  6
Continuous
 62
     7
370
    13
100
AcDbLine
 10
743.3989800903876
 20
164.8877256689068
 30
0.0
 11
721.3200327219665
 21
164.8877256689068
 31
0.0
  0
LINE
  5
16D
330
1A
100
AcDbEntity
  8
GR1_01
  6
Continuous
 62
     7
370
    13
100
AcDbLine
 10
721.3200327219665
 20
164.1377256689068
 30
0.0
 11
743.3989800903876
 21
164.1377256689068
 31
0.0
  0
LINE
  5
16E
330
1A
100
AcDbEntity
  8
GR1_01
  6
Continuous
 62
     7
370
    13
100
AcDbLine
 10
743.3989800903876
 20
164.1377256689068
 30
0.0
 11
743.3989800903876
 21
164.8877256689068
 31
0.0
  0
LINE
  5
16F
330
1A
100
AcDbEntity
  8
GR1_01
  6
Continuous
 62
     7
370
    13
100
AcDbLine
 10
743.1989800903875
 20
164.5127256689068
 30
0.0
 11
721.5200327219666
 21
164.5127256689068
 31
0.0
  0
LINE
  5
170
330
1A
100
AcDbEntity
  8
GR1_01
  6
Continuous
 62
     7
370
    13
100
AcDbLine
 10
743.3989800903876
 20
164.8877256689068
 30
0.0
 11
743.1989800903875
 21
164.5127256689068
 31
0.0
  0
LINE
  5
171
330
1A
100
AcDbEntity
  8
GR1_01
  6
Continuous
 62
     7
370
    13
100
AcDbLine
 10
743.1989800903875
 20
164.5127256689068
 30
0.0
 11
743.3989800903876
 21
164.1377256689068
 31
0.0
  0
LINE
  5
172
330
1A
100
AcDbEntity
  8
GR1_01
  6
Continuous
 62
     7
370
    13
100
AcDbLine
 10
718.839769564072
 20
166.7377256689068
 30
0.0
 11
718.839769564072
 21
167.4877256689068
 31
0.0
  0
LINE
  5
173
330
1A
100
AcDbEntity
  8
GR1_01
  6
Continuous
 62
     7
370
    13
100
AcDbLine
 10
718.839769564072
 20
167.4877256689068
 30
0.0
 11
719.0397695640719
 21
167.1127256689068
 31
0.0
  0
LINE
  5
174
330
1A
100
AcDbEntity
  8
GR1_01
  6
Continuous
 62
     7
370
    13
100
AcDbLine
 10
719.0397695640719
 20
167.1127256689068
 30
0.0
 11
718.839769564072
 21
166.7377256689068
 31
0.0
  0
LINE
  5
175
330
1A
100
AcDbEntity
  8
GR1_01
  6
Continuous
 62
     7
370
    13
100
AcDbLine
 10
721.3200327219665
 20
164.1377256689068
 30
0.0
 11
721.3200327219665
 21
164.8877256689068
 31
0.0
  0
LINE
  5
176
330
1A
100
AcDbEntity
  8
GR1_01
  6
Continuous
 62
     7
370
    13
100
AcDbLine
 10
721.3200327219665
 20
164.8877256689068
 30
0.0
 11
721.5200327219666
 21
164.5127256689068
 31
0.0
  0
LINE
  5
177
330
1A
100
AcDbEntity
  8
GR1_01
  6
Continuous
 62
     7
370
    13
100
AcDbLine
 10
721.5200327219666
 20
164.5127256689068
 30
0.0
 11
721.3200327219665
 21
164.1377256689068
 31
0.0
  0
ARC
  5
178
330
1A
100
AcDbEntity
  8
GR1_01
  6
Continuous
 62
     7
370
    13
100
AcDbCircle
 10
749.7407220047485
 20
170.1127256689068
 30
0.0
 40
0.8
100
AcDbArc
 50
316.3501556114662
 51
90.0
  0
ARC
  5
179
330
1A
100
AcDbEntity
  8
GR1_01
  6
Continuous
 62
     7
370
    13
100
AcDbCircle
 10
748.9775641100116
 20
169.3127256689068
 30
0.0
 40
0.8
100
AcDbArc
 50
270.0
 51
316.3501556114643
  0
ARC
  5
17A
330
1A
100
AcDbEntity
  8
GR1_01
  6
Continuous
 62
     7
370
    13
100
AcDbCircle
 10
747.2604588468538
 20
167.5127256689068
 30
0.0
 40
0.8
100
AcDbArc
 50
316.3501556114655
 51
90.0
  0
ARC
  5
17B
330
1A
100
AcDbEntity
  8
GR1_01
  6
Continuous
 62
     7
370
    13
100
AcDbCircle
 10
746.4973009521169
 20
166.7127256689068
 30
0.0
 40
0.8
100
AcDbArc
 50
270.0
 51
316.350155611465
  0
ARC
  5
17C
330
1A
100
AcDbEntity
  8
GR1_01
  6
Continuous
 62
     7
370
    13
100
AcDbCircle
 10
744.780195688959
 20
164.9127256689068
 30
0.0
 40
0.8
100
AcDbArc
 50
316.3501556114655
 51
90.0
  0
ARC
  5
17D
330
1A
100
AcDbEntity
  8
GR1_01
  6
Continuous
 62
     7
370
    13
100
AcDbCircle
 10
744.0170377942222
 20
164.1127256689068
 30
0.0
 40
0.8
100
AcDbArc
 50
270.0
 51
316.3501556114678
  0
ARC
  5
17E
330
1A
100
AcDbEntity
  8
GR1_01
  6
Continuous
 62
     7
370
    13
100
AcDbCircle
 10
719.938817123395
 20
164.9127256689068
 30
0.0
 40
0.8
100
AcDbArc
 50
90.0
 51
223.6498443885338
  0
ARC
  5
17F
330
1A
100
AcDbEntity
  8
GR1_01
  6
Continuous
 62
     7
370
    13
100
AcDbCircle
 10
720.7019750181319
 20
164.1127256689068
 30
0.0
 40
0.8
100
AcDbArc
 50
223.6498443885362
 51
270.0
  0
ARC
  5
180
330
1A
100
AcDbEntity
  8
GR1_01
  6
Continuous
 62
     7
370
    13
100
AcDbCircle
 10
717.4585539655004
 20
167.5127256689068
 30
0.0
 40
0.8
100
AcDbArc
 50
90.0
 51
223.6498443885339
  0
ARC
  5
181
330
1A
100
AcDbEntity
  8
GR1_01
  6
Continuous
 62
     7
370
    13
100
AcDbCircle
 10
718.2217118602372
 20
166.7127256689068
 30
0.0
 40
0.8
100
AcDbArc
 50
223.649844388535
 51
270.0
  0
ARC
  5
182
330
1A
100
AcDbEntity
  8
GR1_01
  6
Continuous
 62
     7
370
    13
100
AcDbCircle
 10
714.9782908076058
 20
170.1127256689068
 30
0.0
 40
0.8
100
AcDbArc
 50
90.0
 51
223.6498443885363
  0
ARC
  5
183
330
1A
100
AcDbEntity
  8
GR1_01
  6
Continuous
 62
     7
370
    13
100
AcDbCircle
 10
715.7414487023424
 20
169.3127256689068
 30
0.0
 40
0.8
100
AcDbArc
 50
223.6498443885338
 51
270.0
  0
LINE
  5
184
330
1A
100
AcDbEntity
  8
GR1_01
  6
Continuous
 62
     7
370
    13
100
AcDbLine
 10
718.632033800429
 20
164.664925088959
 30
0.0
 11
717.8688759056921
 21
165.464925088959
 31
0.0
  0
LINE
  5
185
330
1A
100
AcDbEntity
  8
GR1_01
  6
Continuous
 62
     7
370
    13
100
AcDbLine
 10
716.6719608787685
 20
164.8877256689068
 30
0.0
 11
716.6719608787685
 21
164.1377256689068
 31
0.0
  0
LINE
  5
186
330
1A
100
AcDbEntity
  8
GR1_01
  6
Continuous
 62
     7
370
    13
100
AcDbLine
 10
716.6719608787685
 20
164.1377256689068
 30
0.0
 11
716.4719608787684
 21
164.5127256689068
 31
0.0
  0
LINE
  5
187
330
1A
100
AcDbEntity
  8
GR1_01
  6
Continuous
 62
     7
370
    13
100
AcDbLine
 10
716.4719608787684
 20
164.5127256689068
 30
0.0
 11
716.6719608787685
 21
164.8877256689068
 31
0.0
  0
ARC
  5
188
330
1A
100
AcDbEntity
  8
GR1_01
  6
Continuous
 62
     7
370
    13
100
AcDbCircle
 10
718.0531764773398
 20
164.1127256689068
 30
0.0
 40
0.8
100
AcDbArc
 50
270.0
 51
43.64984438853277
  0
ARC
  5
189
330
1A
100
AcDbEntity
  8
GR1_01
  6
Continuous
 62
     7
370
    13
100
AcDbCircle
 10
717.2900185826029
 20
164.9127256689068
 30
0.0
 40
0.8
100
AcDbArc
 50
43.6498443885362
 51
90.0
  0
LINE
  5
18A
330
1A
100
AcDbEntity
  8
GR1_01
  6
Continuous
 62
     7
370
    13
100
AcDbLine
 10
716.1517706425343
 20
167.264925088959
 30
0.0
 11
715.3886127477974
 21
168.064925088959
 31
0.0
  0
LINE
  5
18B
330
1A
100
AcDbEntity
  8
GR1_01
  6
Continuous
 62
     7
370
    13
100
AcDbLine
 10
714.1916977208738
 20
167.4877256689068
 30
0.0
 11
714.1916977208738
 21
166.7377256689068
 31
0.0
  0
LINE
  5
18C
330
1A
100
AcDbEntity
  8
GR1_01
  6
Continuous
 62
     7
370
    13
100
AcDbLine
 10
714.1916977208738
 20
166.7377256689068
 30
0.0
 11
713.9916977208737
 21
167.1127256689068
 31
0.0
  0
LINE
  5
18D
330
1A
100
AcDbEntity
  8
GR1_01
  6
Continuous
 62
     7
370
    13
100
AcDbLine
 10
713.9916977208737
 20
167.1127256689068
 30
0.0
 11
714.1916977208738
 21
167.4877256689068
 31
0.0
  0
ARC
  5
18E
330
1A
100
AcDbEntity
  8
GR1_01
  6
Continuous
 62
     7
370
    13
100
AcDbCircle
 10
715.5729133194451
 20
166.7127256689068
 30
0.0
 40
0.8
100
AcDbArc
 50
270.0
 51
43.64984438853277
  0
ARC
  5
18F
330
1A
100
AcDbEntity
  8
GR1_01
  6
Continuous
 62
     7
370
    13
100
AcDbCircle
 10
714.8097554247083
 20
167.5127256689068
 30
0.0
 40
0.8
100
AcDbArc
 50
43.6498443885362
 51
90.0
  0
LINE
  5
190
330
1A
100
AcDbEntity
  8
GR1_01
  6
Continuous
 62
     7
370
    13
100
AcDbLine
 10
717.2900185826029
 20
165.7127256689068
 30
0.0
 11
706.0805975574996
 21
165.7127256689068
 31
0.0
  0
LINE
  5
191
330
1A
100
AcDbEntity
  8
GR1_01
  6
Continuous
 62
     7
370
    13
100
AcDbLine
 10
718.0531764773398
 20
163.3127256689068
 30
0.0
 11
705.7253343996049
 21
163.3127256689068
 31
0.0
  0
LINE
  5
192
330
1A
100
AcDbEntity
  8
GR1_01
  6
Continuous
 62
     7
370
    13
100
AcDbLine
 10
706.2750173624995
 20
167.8830497917338
 30
0.0
 11
705.9197542046049
 21
166.6830497917339
 31
0.0
  0
LINE
  5
193
330
1A
100
AcDbEntity
  8
GR1_01
  6
Continuous
 62
     7
370
    13
100
AcDbLine
 10
715.5729133194451
 20
165.9127256689068
 30
0.0
 11
706.4950712417099
 21
165.9127256689068
 31
0.0
  0
LINE
  5
194
330
1A
100
AcDbEntity
  8
GR1_01
  6
Continuous
 62
     7
370
    13
100
AcDbLine
 10
705.5052805203946
 20
165.2830497917339
 30
0.0
 11
705.1500173625
 21
164.0830497917338
 31
0.0
  0
LINE
  5
195
330
1A
100
AcDbEntity
  8
GR1_01
  6
Continuous
 62
     7
370
    13
100
AcDbLine
 10
714.8097554247083
 20
168.3127256689068
 30
0.0
 11
706.8503343996044
 21
168.3127256689068
 31
0.0
  0
ARC
  5
196
330
1A
100
AcDbEntity
  8
GR1_01
  6
Continuous
 62
     7
370
    13
100
AcDbCircle
 10
706.8503343996044
 20
167.7127256689068
 30
0.0
 40
0.6
100
AcDbArc
 50
90.0
 51
163.5084736940922
  0
ARC
  5
197
330
1A
100
AcDbEntity
  8
GR1_01
  6
Continuous
 62
     7
370
    13
100
AcDbCircle
 10
706.4950712417099
 20
166.5127256689068
 30
0.0
 40
0.6
100
AcDbArc
 50
163.5084736940922
 51
270.0
  0
ARC
  5
198
330
1A
100
AcDbEntity
  8
GR1_01
  6
Continuous
 62
     7
370
    13
100
AcDbCircle
 10
706.0805975574996
 20
165.1127256689068
 30
0.0
 40
0.6
100
AcDbArc
 50
90.0
 51
163.5084736940924
  0
ARC
  5
199
330
1A
100
AcDbEntity
  8
GR1_01
  6
Continuous
 62
     7
370
    13
100
AcDbCircle
 10
705.7253343996049
 20
163.9127256689068
 30
0.0
 40
0.6
100
AcDbArc
 50
163.508473694092
 51
270.0
  0
LINE
  5
19A
330
1A
100
AcDbEntity
  8
GR1_01
  6
Continuous
 62
     7
370
    13
100
AcDbLine
 10
716.4719608787684
 20
164.5127256689067
 30
0.0
 11
707.1772240366583
 21
164.5127256689067
 31
0.0
  0
LINE
  5
19B
330
1A
100
AcDbEntity
  8
GR1_01
  6
Continuous
 62
     7
370
    13
100
AcDbLine
 10
706.9772240366584
 20
164.1377256689068
 30
0.0
 11
706.9772240366584
 21
164.8877256689068
 31
0.0
  0
LINE
  5
19C
330
1A
100
AcDbEntity
  8
GR1_01
  6
Continuous
 62
     7
370
    13
100
AcDbLine
 10
706.9772240366584
 20
164.8877256689068
 30
0.0
 11
707.1772240366585
 21
164.5127256689068
 31
0.0
  0
LINE
  5
19D
330
1A
100
AcDbEntity
  8
GR1_01
  6
Continuous
 62
     7
370
    13
100
AcDbLine
 10
707.1772240366585
 20
164.5127256689068
 30
0.0
 11
706.9772240366584
 21
164.1377256689068
 31
0.0
  0
LINE
  5
19E
330
1A
100
AcDbEntity
  8
GR1_01
  6
Continuous
 62
     7
370
    13
100
AcDbLine
 10
716.6719608787685
 20
164.8877256689068
 30
0.0
 11
706.9772240366583
 21
164.8877256689068
 31
0.0
  0
LINE
  5
19F
330
1A
100
AcDbEntity
  8
GR1_01
  6
Continuous
 62
     7
370
    13
100
AcDbLine
 10
706.9772240366583
 20
164.1377256689068
 30
0.0
 11
716.6719608787685
 21
164.1377256689067
 31
0.0
  0
LINE
  5
1A0
330
1A
100
AcDbEntity
  8
GR1_01
  6
Continuous
 62
     7
370
    13
100
AcDbLine
 10
707.7469608787634
 20
166.7377256689068
 30
0.0
 11
707.7469608787634
 21
167.4877256689068
 31
0.0
  0
LINE
  5
1A1
330
1A
100
AcDbEntity
  8
GR1_01
  6
Continuous
 62
     7
370
    13
100
AcDbLine
 10
707.7469608787634
 20
167.4877256689068
 30
0.0
 11
707.9469608787634
 21
167.1127256689068
 31
0.0
  0
LINE
  5
1A2
330
1A
100
AcDbEntity
  8
GR1_01
  6
Continuous
 62
     7
370
    13
100
AcDbLine
 10
707.9469608787634
 20
167.1127256689068
 30
0.0
 11
707.7469608787634
 21
166.7377256689068
 31
0.0
  0
LINE
  5
1A3
330
1A
100
AcDbEntity
  8
GR1_01
  6
Continuous
 62
     7
370
    13
100
AcDbLine
 10
714.1916977208738
 20
167.4877256689068
 30
0.0
 11
707.7469608787634
 21
167.4877256689068
 31
0.0
  0
LINE
  5
1A4
330
1A
100
AcDbEntity
  8
GR1_01
  6
Continuous
 62
     7
370
    13
100
AcDbLine
 10
707.7469608787634
 20
166.7377256689068
 30
0.0
 11
714.1916977208738
 21
166.7377256689068
 31
0.0
  0
LINE
  5
1A5
330
1A
100
AcDbEntity
  8
GR1_01
  6
Continuous
 62
     7
370
    13
100
AcDbLine
 10
713.9916977208737
 20
167.1127256689068
 30
0.0
 11
707.9469608787634
 21
167.1127256689068
 31
0.0
  0
LINE
  5
1A6
330
1A
100
AcDbEntity
  8
GR1_01
  6
Continuous
 62
     7
370
    13
100
AcDbLine
 10
746.0869790119251
 20
164.664925088959
 30
0.0
 11
746.8501369066621
 21
165.464925088959
 31
0.0
  0
LINE
  5
1A7
330
1A
100
AcDbEntity
  8
GR1_01
  6
Continuous
 62
     7
370
    13
100
AcDbLine
 10
748.0470519335857
 20
164.8877256689068
 30
0.0
 11
748.0470519335857
 21
164.1377256689068
 31
0.0
  0
LINE
  5
1A8
330
1A
100
AcDbEntity
  8
GR1_01
  6
Continuous
 62
     7
370
    13
100
AcDbLine
 10
748.0470519335857
 20
164.1377256689068
 30
0.0
 11
748.2470519335857
 21
164.5127256689068
 31
0.0
  0
LINE
  5
1A9
330
1A
100
AcDbEntity
  8
GR1_01
  6
Continuous
 62
     7
370
    13
100
AcDbLine
 10
748.2470519335857
 20
164.5127256689068
 30
0.0
 11
748.0470519335857
 21
164.8877256689068
 31
0.0
  0
ARC
  5
1AA
330
1A
100
AcDbEntity
  8
GR1_01
  6
Continuous
 62
     7
370
    13
100
AcDbCircle
 10
746.6658363350143
 20
164.1127256689068
 30
0.0
 40
0.8
100
AcDbArc
 50
136.3501556114678
 51
270.0
  0
ARC
  5
1AB
330
1A
100
AcDbEntity
  8
GR1_01
  6
Continuous
 62
     7
370
    13
100
AcDbCircle
 10
747.4289942297512
 20
164.9127256689068
 30
0.0
 40
0.8
100
AcDbArc
 50
90.0
 51
136.3501556114638
  0
LINE
  5
1AC
330
1A
100
AcDbEntity
  8
GR1_01
  6
Continuous
 62
     7
370
    13
100
AcDbLine
 10
748.5672421698198
 20
167.264925088959
 30
0.0
 11
749.3304000645567
 21
168.064925088959
 31
0.0
  0
LINE
  5
1AD
330
1A
100
AcDbEntity
  8
GR1_01
  6
Continuous
 62
     7
370
    13
100
AcDbLine
 10
750.5273150914804
 20
167.4877256689068
 30
0.0
 11
750.5273150914804
 21
166.7377256689068
 31
0.0
  0
LINE
  5
1AE
330
1A
100
AcDbEntity
  8
GR1_01
  6
Continuous
 62
     7
370
    13
100
AcDbLine
 10
750.5273150914804
 20
166.7377256689068
 30
0.0
 11
750.7273150914804
 21
167.1127256689068
 31
0.0
  0
LINE
  5
1AF
330
1A
100
AcDbEntity
  8
GR1_01
  6
Continuous
 62
     7
370
    13
100
AcDbLine
 10
750.7273150914804
 20
167.1127256689068
 30
0.0
 11
750.5273150914804
 21
167.4877256689068
 31
0.0
  0
ARC
  5
1B0
330
1A
100
AcDbEntity
  8
GR1_01
  6
Continuous
 62
     7
370
    13
100
AcDbCircle
 10
749.146099492909
 20
166.7127256689068
 30
0.0
 40
0.8
100
AcDbArc
 50
136.3501556114678
 51
270.0
  0
ARC
  5
1B1
330
1A
100
AcDbEntity
  8
GR1_01
  6
Continuous
 62
     7
370
    13
100
AcDbCircle
 10
749.9092573876459
 20
167.5127256689068
 30
0.0
 40
0.8
100
AcDbArc
 50
90.0
 51
136.3501556114638
  0
LINE
  5
1B2
330
1A
100
AcDbEntity
  8
GR1_01
  6
Continuous
 62
     7
370
    13
100
AcDbLine
 10
747.4289942297512
 20
165.7127256689068
 30
0.0
 11
758.6384152548545
 21
165.7127256689068
 31
0.0
  0
LINE
  5
1B3
330
1A
100
AcDbEntity
  8
GR1_01
  6
Continuous
 62
     7
370
    13
100
AcDbLine
 10
746.6658363350143
 20
163.3127256689068
 30
0.0
 11
758.9936784127493
 21
163.3127256689068
 31
0.0
  0
LINE
  5
1B4
330
1A
100
AcDbEntity
  8
GR1_01
  6
Continuous
 62
     7
370
    13
100
AcDbLine
 10
758.4439954498546
 20
167.8830497917338
 30
0.0
 11
758.7992586077492
 21
166.6830497917339
 31
0.0
  0
LINE
  5
1B5
330
1A
100
AcDbEntity
  8
GR1_01
  6
Continuous
 62
     7
370
    13
100
AcDbLine
 10
749.146099492909
 20
165.9127256689068
 30
0.0
 11
758.2239415706442
 21
165.9127256689068
 31
0.0
  0
LINE
  5
1B6
330
1A
100
AcDbEntity
  8
GR1_01
  6
Continuous
 62
     7
370
    13
100
AcDbLine
 10
759.2137322919594
 20
165.2830497917339
 30
0.0
 11
759.5689954498541
 21
164.0830497917338
 31
0.0
  0
LINE
  5
1B7
330
1A
100
AcDbEntity
  8
GR1_01
  6
Continuous
 62
     7
370
    13
100
AcDbLine
 10
749.9092573876459
 20
168.3127256689068
 30
0.0
 11
757.8686784127497
 21
168.3127256689068
 31
0.0
  0
ARC
  5
1B8
330
1A
100
AcDbEntity
  8
GR1_01
  6
Continuous
 62
     7
370
    13
100
AcDbCircle
 10
757.8686784127497
 20
167.7127256689068
 30
0.0
 40
0.6
100
AcDbArc
 50
16.49152630590778
 51
90.0
  0
ARC
  5
1B9
330
1A
100
AcDbEntity
  8
GR1_01
  6
Continuous
 62
     7
370
    13
100
AcDbCircle
 10
758.2239415706442
 20
166.5127256689068
 30
0.0
 40
0.6
100
AcDbArc
 50
270.0
 51
16.49152630590775
  0
ARC
  5
1BA
330
1A
100
AcDbEntity
  8
GR1_01
  6
Continuous
 62
     7
370
    13
100
AcDbCircle
 10
758.6384152548545
 20
165.1127256689068
 30
0.0
 40
0.6
100
AcDbArc
 50
16.49152630590778
 51
90.0
  0
ARC
  5
1BB
330
1A
100
AcDbEntity
  8
GR1_01
  6
Continuous
 62
     7
370
    13
100
AcDbCircle
 10
758.9936784127493
 20
163.9127256689068
 30
0.0
 40
0.6
100
AcDbArc
 50
270.0
 51
16.49152630590775
  0
LINE
  5
1BC
330
1A
100
AcDbEntity
  8
GR1_01
  6
Continuous
 62
     7
370
    13
100
AcDbLine
 10
748.2470519335857
 20
164.5127256689067
 30
0.0
 11
757.5417887756957
 21
164.5127256689067
 31
0.0
  0
LINE
  5
1BD
330
1A
100
AcDbEntity
  8
GR1_01
  6
Continuous
 62
     7
370
    13
100
AcDbLine
 10
757.7417887756957
 20
164.1377256689068
 30
0.0
 11
757.7417887756957
 21
164.8877256689068
 31
0.0
  0
LINE
  5
1BE
330
1A
100
AcDbEntity
  8
GR1_01
  6
Continuous
 62
     7
370
    13
100
AcDbLine
 10
757.7417887756957
 20
164.8877256689068
 30
0.0
 11
757.5417887756957
 21
164.5127256689068
 31
0.0
  0
LINE
  5
1BF
330
1A
100
AcDbEntity
  8
GR1_01
  6
Continuous
 62
     7
370
    13
100
AcDbLine
 10
757.5417887756957
 20
164.5127256689068
 30
0.0
 11
757.7417887756957
 21
164.1377256689068
 31
0.0
  0
LINE
  5
1C0
330
1A
100
AcDbEntity
  8
GR1_01
  6
Continuous
 62
     7
370
    13
100
AcDbLine
 10
748.0470519335857
 20
164.8877256689068
 30
0.0
 11
757.7417887756958
 21
164.8877256689068
 31
0.0
  0
LINE
  5
1C1
330
1A
100
AcDbEntity
  8
GR1_01
  6
Continuous
 62
     7
370
    13
100
AcDbLine
 10
757.7417887756958
 20
164.1377256689068
 30
0.0
 11
748.0470519335857
 21
164.1377256689067
 31
0.0
  0
LINE
  5
1C2
330
1A
100
AcDbEntity
  8
GR1_01
  6
Continuous
 62
     7
370
    13
100
AcDbLine
 10
756.9720519335907
 20
166.7377256689068
 30
0.0
 11
756.9720519335907
 21
167.4877256689068
 31
0.0
  0
LINE
  5
1C3
330
1A
100
AcDbEntity
  8
GR1_01
  6
Continuous
 62
     7
370
    13
100
AcDbLine
 10
756.9720519335907
 20
167.4877256689068
 30
0.0
 11
756.7720519335908
 21
167.1127256689068
 31
0.0
  0
LINE
  5
1C4
330
1A
100
AcDbEntity
  8
GR1_01
  6
Continuous
 62
     7
370
    13
100
AcDbLine
 10
756.7720519335908
 20
167.1127256689068
 30
0.0
 11
756.9720519335907
 21
166.7377256689068
 31
0.0
  0
LINE
  5
1C5
330
1A
100
AcDbEntity
  8
GR1_01
  6
Continuous
 62
     7
370
    13
100
AcDbLine
 10
750.5273150914804
 20
167.4877256689068
 30
0.0
 11
756.9720519335907
 21
167.4877256689068
 31
0.0
  0
LINE
  5
1C6
330
1A
100
AcDbEntity
  8
GR1_01
  6
Continuous
 62
     7
370
    13
100
AcDbLine
 10
756.9720519335907
 20
166.7377256689068
 30
0.0
 11
750.5273150914804
 21
166.7377256689068
 31
0.0
  0
LINE
  5
1C7
330
1A
100
AcDbEntity
  8
GR1_01
  6
Continuous
 62
     7
370
    13
100
AcDbLine
 10
750.7273150914804
 20
167.1127256689068
 30
0.0
 11
756.7720519335908
 21
167.1127256689068
 31
0.0
  0
LINE
  5
1C8
330
1A
100
AcDbEntity
  8
GR1_01
  6
Continuous
 62
     7
370
    13
100
AcDbLine
 10
757.4720519335906
 20
170.7127256689068
 30
0.0
 11
751.9720519335906
 21
170.7127256689068
 31
0.0
  0
LINE
  5
1C9
330
1A
100
AcDbEntity
  8
GR1_01
  6
Continuous
 62
     7
370
    13
100
AcDbLine
 10
751.9720519335906
 20
170.7127256689068
 30
0.0
 11
751.9720519335906
 21
168.8127256689068
 31
0.0
  0
LINE
  5
1CA
330
1A
100
AcDbEntity
  8
GR1_01
  6
Continuous
 62
     7
370
    13
100
AcDbLine
 10
751.9720519335906
 20
168.8127256689068
 30
0.0
 11
757.4720519335906
 21
168.8127256689068
 31
0.0
  0
LINE
  5
1CB
330
1A
100
AcDbEntity
  8
GR1_01
  6
Continuous
 62
     7
370
    13
100
AcDbLine
 10
757.4720519335906
 20
168.8127256689068
 30
0.0
 11
757.4720519335906
 21
170.7127256689068
 31
0.0
  0
LINE
  5
1CC
330
1A
100
AcDbEntity
  8
GR1_01
  6
Continuous
 62
     7
370
    13
100
AcDbLine
 10
757.2220519335906
 20
170.4627256689068
 30
0.0
 11
752.2220519335907
 21
170.4627256689068
 31
0.0
  0
LINE
  5
1CD
330
1A
100
AcDbEntity
  8
GR1_01
  6
Continuous
 62
     7
370
    13
100
AcDbLine
 10
752.2220519335907
 20
170.4627256689068
 30
0.0
 11
752.2220519335907
 21
168.9127256689068
 31
0.0
  0
LINE
  5
1CE
330
1A
100
AcDbEntity
  8
GR1_01
  6
Continuous
 62
     7
370
    13
100
AcDbLine
 10
757.2220519335906
 20
168.9127256689068
 30
0.0
 11
757.2220519335907
 21
170.4627256689068
 31
0.0
  0
LINE
  5
1CF
330
1A
100
AcDbEntity
  8
GR1_01
  6
Continuous
 62
     7
370
    13
100
AcDbLine
 10
752.2220519335907
 20
168.9127256689068
 30
0.0
 11
757.2220519335906
 21
168.9127256689068
 31
0.0
  0
LINE
  5
1D0
330
1A
100
AcDbEntity
  8
GR1_01
  6
Continuous
 62
     7
370
    13
100
AcDbLine
 10
757.4720519335907
 20
170.7127256689068
 30
0.0
 11
757.2220519335906
 21
170.4627256689068
 31
0.0
  0
LINE
  5
1D1
330
1A
100
AcDbEntity
  8
GR1_01
  6
Continuous
 62
     7
370
    13
100
AcDbLine
 10
751.9720519335907
 20
170.7127256689068
 30
0.0
 11
752.2220519335907
 21
170.4627256689068
 31
0.0
  0
LINE
  5
1D2
330
1A
100
AcDbEntity
  8
GR1_01
  6
Continuous
 62
     7
370
    13
100
AcDbLine
 10
752.2220519335907
 20
168.9127256689068
 30
0.0
 11
751.9720519335907
 21
168.8127256689068
 31
0.0
  0
LINE
  5
1D3
330
1A
100
AcDbEntity
  8
GR1_01
  6
Continuous
 62
     7
370
    13
100
AcDbLine
 10
757.2220519335906
 20
168.9127256689068
 30
0.0
 11
757.4720519335907
 21
168.8127256689068
 31
0.0
  0
INSERT
  5
1D7
330
1A
100
AcDbEntity
  8
GR1_01
  6
Continuous
 62
     7
370
    13
100
AcDbBlockReference
  2
BLKF021
 10
0.0
 20
0.0
 30
0.0
  0
LINE
  5
235
330
1A
100
AcDbEntity
  8
GR1_01
  6
Continuous
 62
     7
370
    13
100
AcDbLine
 10
707.2469608787635
 20
170.7127256689068
 30
0.0
 11
712.7469608787635
 21
170.7127256689068
 31
0.0
  0
LINE
  5
236
330
1A
100
AcDbEntity
  8
GR1_01
  6
Continuous
 62
     7
370
    13
100
AcDbLine
 10
712.7469608787635
 20
170.7127256689068
 30
0.0
 11
712.7469608787635
 21
168.8127256689068
 31
0.0
  0
LINE
  5
237
330
1A
100
AcDbEntity
  8
GR1_01
  6
Continuous
 62
     7
370
    13
100
AcDbLine
 10
712.7469608787635
 20
168.8127256689068
 30
0.0
 11
707.2469608787635
 21
168.8127256689068
 31
0.0
  0
LINE
  5
238
330
1A
100
AcDbEntity
  8
GR1_01
  6
Continuous
 62
     7
370
    13
100
AcDbLine
 10
707.2469608787635
 20
168.8127256689068
 30
0.0
 11
707.2469608787635
 21
170.7127256689068
 31
0.0
  0
LINE
  5
239
330
1A
100
AcDbEntity
  8
GR1_01
  6
Continuous
 62
     7
370
    13
100
AcDbLine
 10
707.4969608787635
 20
170.4627256689068
 30
0.0
 11
712.4969608787634
 21
170.4627256689068
 31
0.0
  0
LINE
  5
23A
330
1A
100
AcDbEntity
  8
GR1_01
  6
Continuous
 62
     7
370
    13
100
AcDbLine
 10
712.4969608787634
 20
170.4627256689068
 30
0.0
 11
712.4969608787634
 21
168.9127256689068
 31
0.0
  0
LINE
  5
23B
330
1A
100
AcDbEntity
  8
GR1_01
  6
Continuous
 62
     7
370
    13
100
AcDbLine
 10
707.4969608787635
 20
168.9127256689068
 30
0.0
 11
707.4969608787634
 21
170.4627256689068
 31
0.0
  0
LINE
  5
23C
330
1A
100
AcDbEntity
  8
GR1_01
  6
Continuous
 62
     7
370
    13
100
AcDbLine
 10
712.4969608787634
 20
168.9127256689068
 30
0.0
 11
707.4969608787635
 21
168.9127256689068
 31
0.0
  0
LINE
  5
23D
330
1A
100
AcDbEntity
  8
GR1_01
  6
Continuous
 62
     7
370
    13
100
AcDbLine
 10
707.2469608787634
 20
170.7127256689068
 30
0.0
 11
707.4969608787635
 21
170.4627256689068
 31
0.0
  0
LINE
  5
23E
330
1A
100
AcDbEntity
  8
GR1_01
  6
Continuous
 62
     7
370
    13
100
AcDbLine
 10
712.7469608787634
 20
170.7127256689068
 30
0.0
 11
712.4969608787634
 21
170.4627256689068
 31
0.0
  0
LINE
  5
23F
330
1A
100
AcDbEntity
  8
GR1_01
  6
Continuous
 62
     7
370
    13
100
AcDbLine
 10
712.4969608787634
 20
168.9127256689068
 30
0.0
 11
712.7469608787634
 21
168.8127256689068
 31
0.0
  0
LINE
  5
240
330
1A
100
AcDbEntity
  8
GR1_01
  6
Continuous
 62
     7
370
    13
100
AcDbLine
 10
707.4969608787635
 20
168.9127256689068
 30
0.0
 11
707.2469608787634
 21
168.8127256689068
 31
0.0
  0
INSERT
  5
244
330
1A
100
AcDbEntity
  8
GR1_01
  6
Continuous
 62
     7
370
    13
100
AcDbBlockReference
  2
BLKF022
 10
0.0
 20
0.0
 30
0.0
  0
LINE
  5
2A2
330
1A
100
AcDbEntity
  8
GR1_01
  6
Continuous
 62
     7
370
    13
100
AcDbLine
 10
749.5995455341605
 20
113.3244903747893
 30
0.0
 11
715.1194672781938
 21
113.3244903747893
 31
0.0
  0
LINE
  5
2A3
330
1A
100
AcDbEntity
  8
GR1_01
  6
Continuous
 62
     7
370
    13
100
AcDbLine
 10
716.0173000955311
 20
110.5009609630253
 30
0.0
 11
748.7017127168232
 21
110.5009609630253
 31
0.0
  0
LINE
  5
2A4
330
1A
100
AcDbEntity
  8
GR1_01
  6
Continuous
 62
     7
370
    13
100
AcDbLine
 10
747.1192823762658
 20
110.2656668453783
 30
0.0
 11
717.5997304360885
 21
110.2656668453783
 31
0.0
  0
LINE
  5
2A5
330
1A
100
AcDbEntity
  8
GR1_01
  6
Continuous
 62
     7
370
    13
100
AcDbLine
 10
718.4975632534256
 20
107.4421374336143
 30
0.0
 11
746.2214495589287
 21
107.4421374336143
 31
0.0
  0
LINE
  5
2A6
330
1A
100
AcDbEntity
  8
GR1_01
  6
Continuous
 62
     7
370
    13
100
AcDbLine
 10
744.6390192183711
 20
107.2068433159673
 30
0.0
 11
720.0799935939832
 21
107.2068433159673
 31
0.0
  0
LINE
  5
2A7
330
1A
100
AcDbEntity
  8
GR1_01
  6
Continuous
 62
     7
370
    13
100
AcDbLine
 10
720.9778264113203
 20
104.3833139042033
 30
0.0
 11
743.741186401034
 21
104.3833139042033
 31
0.0
  0
LINE
  5
2A8
330
1A
100
AcDbEntity
  8
GR1_01
  6
Continuous
 62
     7
370
    13
100
AcDbLine
 10
750.2805541495593
 20
111.7336675276695
 30
0.0
 11
749.382721332222
 21
110.7924910570814
 31
0.0
  0
LINE
  5
2A9
330
1A
100
AcDbEntity
  8
GR1_01
  6
Continuous
 62
     7
370
    13
100
AcDbLine
 10
747.8002909916647
 20
108.6748439982584
 30
0.0
 11
746.9024581743274
 21
107.7336675276704
 31
0.0
  0
LINE
  5
2AA
330
1A
100
AcDbEntity
  8
GR1_01
  6
Continuous
 62
     7
370
    13
100
AcDbLine
 10
745.32002783377
 20
105.6160204688474
 30
0.0
 11
744.4221950164329
 21
104.6748439982595
 31
0.0
  0
LINE
  5
2AB
330
1A
100
AcDbEntity
  8
GR1_01
  6
Continuous
 62
     7
370
    13
100
AcDbLine
 10
748.3595064061772
 20
112.3539021394953
 30
0.0
 11
716.3595064061773
 21
112.3539021394954
 31
0.0
  0
LINE
  5
2AC
330
1A
100
AcDbEntity
  8
GR1_01
  6
Continuous
 62
     7
370
    13
100
AcDbLine
 10
716.3595064061773
 20
111.4715491983192
 30
0.0
 11
748.3595064061772
 21
111.4715491983191
 31
0.0
  0
LINE
  5
2AD
330
1A
100
AcDbEntity
  8
GR1_01
  6
Continuous
 62
     7
370
    13
100
AcDbLine
 10
748.3595064061772
 20
111.4715491983191
 30
0.0
 11
748.3595064061772
 21
112.3539021394953
 31
0.0
  0
LINE
  5
2AE
330
1A
100
AcDbEntity
  8
GR1_01
  6
Continuous
 62
     7
370
    13
100
AcDbLine
 10
748.1242122885301
 20
111.9127256689072
 30
0.0
 11
716.5948005238242
 21
111.9127256689073
 31
0.0
  0
LINE
  5
2AF
330
1A
100
AcDbEntity
  8
GR1_01
  6
Continuous
 62
     7
370
    13
100
AcDbLine
 10
748.3595064061772
 20
112.3539021394953
 30
0.0
 11
748.1242122885301
 21
111.9127256689072
 31
0.0
  0
LINE
  5
2B0
330
1A
100
AcDbEntity
  8
GR1_01
  6
Continuous
 62
     7
370
    13
100
AcDbLine
 10
748.1242122885301
 20
111.9127256689072
 30
0.0
 11
748.3595064061772
 21
111.4715491983191
 31
0.0
  0
LINE
  5
2B1
330
1A
100
AcDbEntity
  8
GR1_01
  6
Continuous
 62
     7
370
    13
100
AcDbLine
 10
745.8792432482824
 20
109.2950786100845
 30
0.0
 11
718.839769564072
 21
109.2950786100844
 31
0.0
  0
LINE
  5
2B2
330
1A
100
AcDbEntity
  8
GR1_01
  6
Continuous
 62
     7
370
    13
100
AcDbLine
 10
718.839769564072
 20
108.4127256689082
 30
0.0
 11
745.8792432482824
 21
108.4127256689082
 31
0.0
  0
LINE
  5
2B3
330
1A
100
AcDbEntity
  8
GR1_01
  6
Continuous
 62
     7
370
    13
100
AcDbLine
 10
745.8792432482824
 20
108.4127256689082
 30
0.0
 11
745.8792432482824
 21
109.2950786100845
 31
0.0
  0
LINE
  5
2B4
330
1A
100
AcDbEntity
  8
GR1_01
  6
Continuous
 62
     7
370
    13
100
AcDbLine
 10
745.6439491306353
 20
108.8539021394963
 30
0.0
 11
719.075063681719
 21
108.8539021394963
 31
0.0
  0
LINE
  5
2B5
330
1A
100
AcDbEntity
  8
GR1_01
  6
Continuous
 62
     7
370
    13
100
AcDbLine
 10
745.8792432482824
 20
109.2950786100845
 30
0.0
 11
745.6439491306353
 21
108.8539021394963
 31
0.0
  0
LINE
  5
2B6
330
1A
100
AcDbEntity
  8
GR1_01
  6
Continuous
 62
     7
370
    13
100
AcDbLine
 10
745.6439491306353
 20
108.8539021394963
 30
0.0
 11
745.8792432482824
 21
108.4127256689082
 31
0.0
  0
LINE
  5
2B7
330
1A
100
AcDbEntity
  8
GR1_01
  6
Continuous
 62
     7
370
    13
100
AcDbLine
 10
743.3989800903877
 20
106.2362550806733
 30
0.0
 11
721.3200327219665
 21
106.2362550806734
 31
0.0
  0
LINE
  5
2B8
330
1A
100
AcDbEntity
  8
GR1_01
  6
Continuous
 62
     7
370
    13
100
AcDbLine
 10
721.3200327219668
 20
105.3539021394972
 30
0.0
 11
743.3989800903877
 21
105.3539021394971
 31
0.0
  0
LINE
  5
2B9
330
1A
100
AcDbEntity
  8
GR1_01
  6
Continuous
 62
     7
370
    13
100
AcDbLine
 10
743.3989800903877
 20
105.3539021394971
 30
0.0
 11
743.3989800903877
 21
106.2362550806733
 31
0.0
  0
LINE
  5
2BA
330
1A
100
AcDbEntity
  8
GR1_01
  6
Continuous
 62
     7
370
    13
100
AcDbLine
 10
743.1636859727406
 20
105.7950786100852
 30
0.0
 11
721.5553268396138
 21
105.7950786100853
 31
0.0
  0
LINE
  5
2BB
330
1A
100
AcDbEntity
  8
GR1_01
  6
Continuous
 62
     7
370
    13
100
AcDbLine
 10
743.3989800903877
 20
106.2362550806733
 30
0.0
 11
743.1636859727406
 21
105.7950786100852
 31
0.0
  0
LINE
  5
2BC
330
1A
100
AcDbEntity
  8
GR1_01
  6
Continuous
 62
     7
370
    13
100
AcDbLine
 10
743.1636859727406
 20
105.7950786100852
 30
0.0
 11
743.3989800903877
 21
105.3539021394971
 31
0.0
  0
ARC
  5
2BD
330
1A
100
AcDbEntity
  8
GR1_01
  6
Continuous
 62
     7
370
    13
100
AcDbCircle
 10
749.5995455341605
 20
112.3833139042013
 30
0.0
 40
0.9411764705879999
100
AcDbArc
 50
316.3501556114662
 51
90.0
  0
ARC
  5
2BE
330
1A
100
AcDbEntity
  8
GR1_01
  6
Continuous
 62
     7
370
    13
100
AcDbCircle
 10
748.7017127168232
 20
111.4421374336133
 30
0.0
 40
0.9411764705879999
100
AcDbArc
 50
270.0
 51
316.3501556114643
  0
ARC
  5
2BF
330
1A
100
AcDbEntity
  8
GR1_01
  6
Continuous
 62
     7
370
    13
100
AcDbCircle
 10
747.1192823762658
 20
109.3244903747903
 30
0.0
 40
0.9411764705879999
100
AcDbArc
 50
316.3501556114655
 51
90.0
  0
ARC
  5
2C0
330
1A
100
AcDbEntity
  8
GR1_01
  6
Continuous
 62
     7
370
    13
100
AcDbCircle
 10
746.2214495589287
 20
108.3833139042023
 30
0.0
 40
0.9411764705879999
100
AcDbArc
 50
270.0
 51
316.350155611465
  0
ARC
  5
2C1
330
1A
100
AcDbEntity
  8
GR1_01
  6
Continuous
 62
     7
370
    13
100
AcDbCircle
 10
744.6390192183711
 20
106.2656668453793
 30
0.0
 40
0.9411764705879999
100
AcDbArc
 50
316.3501556114655
 51
90.0
  0
ARC
  5
2C2
330
1A
100
AcDbEntity
  8
GR1_01
  6
Continuous
 62
     7
370
    13
100
AcDbCircle
 10
743.741186401034
 20
105.3244903747913
 30
0.0
 40
0.9411764705879999
100
AcDbArc
 50
270.0
 51
316.3501556114678
  0
LINE
  5
2C3
330
1A
100
AcDbEntity
  8
GR1_01
  6
Continuous
 62
     7
370
    13
100
AcDbLine
 10
714.438458662795
 20
111.7336675276695
 30
0.0
 11
715.3362914801323
 21
110.7924910570814
 31
0.0
  0
LINE
  5
2C4
330
1A
100
AcDbEntity
  8
GR1_01
  6
Continuous
 62
     7
370
    13
100
AcDbLine
 10
716.9187218206896
 20
108.6748439982584
 30
0.0
 11
717.8165546380269
 21
107.7336675276704
 31
0.0
  0
LINE
  5
2C5
330
1A
100
AcDbEntity
  8
GR1_01
  6
Continuous
 62
     7
370
    13
100
AcDbLine
 10
719.3989849785843
 20
105.6160204688474
 30
0.0
 11
720.2968177959215
 21
104.6748439982595
 31
0.0
  0
LINE
  5
2C6
330
1A
100
AcDbEntity
  8
GR1_01
  6
Continuous
 62
     7
370
    13
100
AcDbLine
 10
716.3595064061772
 20
111.4715491983191
 30
0.0
 11
716.3595064061772
 21
112.3539021394953
 31
0.0
  0
LINE
  5
2C7
330
1A
100
AcDbEntity
  8
GR1_01
  6
Continuous
 62
     7
370
    13
100
AcDbLine
 10
716.3595064061772
 20
112.3539021394953
 30
0.0
 11
716.5948005238242
 21
111.9127256689072
 31
0.0
  0
LINE
  5
2C8
330
1A
100
AcDbEntity
  8
GR1_01
  6
Continuous
 62
     7
370
    13
100
AcDbLine
 10
716.5948005238242
 20
111.9127256689072
 30
0.0
 11
716.3595064061772
 21
111.4715491983191
 31
0.0
  0
LINE
  5
2C9
330
1A
100
AcDbEntity
  8
GR1_01
  6
Continuous
 62
     7
370
    13
100
AcDbLine
 10
718.839769564072
 20
108.4127256689082
 30
0.0
 11
718.839769564072
 21
109.2950786100845
 31
0.0
  0
LINE
  5
2CA
330
1A
100
AcDbEntity
  8
GR1_01
  6
Continuous
 62
     7
370
    13
100
AcDbLine
 10
718.839769564072
 20
109.2950786100845
 30
0.0
 11
719.075063681719
 21
108.8539021394963
 31
0.0
  0
LINE
  5
2CB
330
1A
100
AcDbEntity
  8
GR1_01
  6
Continuous
 62
     7
370
    13
100
AcDbLine
 10
719.075063681719
 20
108.8539021394963
 30
0.0
 11
718.839769564072
 21
108.4127256689082
 31
0.0
  0
LINE
  5
2CC
330
1A
100
AcDbEntity
  8
GR1_01
  6
Continuous
 62
     7
370
    13
100
AcDbLine
 10
721.3200327219666
 20
105.3539021394971
 30
0.0
 11
721.3200327219666
 21
106.2362550806733
 31
0.0
  0
LINE
  5
2CD
330
1A
100
AcDbEntity
  8
GR1_01
  6
Continuous
 62
     7
370
    13
100
AcDbLine
 10
721.3200327219666
 20
106.2362550806733
 30
0.0
 11
721.5553268396137
 21
105.7950786100852
 31
0.0
  0
LINE
  5
2CE
330
1A
100
AcDbEntity
  8
GR1_01
  6
Continuous
 62
     7
370
    13
100
AcDbLine
 10
721.5553268396137
 20
105.7950786100852
 30
0.0
 11
721.3200327219666
 21
105.3539021394971
 31
0.0
  0
ARC
  5
2CF
330
1A
100
AcDbEntity
  8
GR1_01
  6
Continuous
 62
     7
370
    13
100
AcDbCircle
 10
715.1194672781938
 20
112.3833139042013
 30
0.0
 40
0.9411764705879999
100
AcDbArc
 50
90.0
 51
223.6498443885329
  0
ARC
  5
2D0
330
1A
100
AcDbEntity
  8
GR1_01
  6
Continuous
 62
     7
370
    13
100
AcDbCircle
 10
716.0173000955311
 20
111.4421374336133
 30
0.0
 40
0.9411764705879999
100
AcDbArc
 50
223.6498443885358
 51
270.0
  0
ARC
  5
2D1
330
1A
100
AcDbEntity
  8
GR1_01
  6
Continuous
 62
     7
370
    13
100
AcDbCircle
 10
717.5997304360885
 20
109.3244903747903
 30
0.0
 40
0.9411764705879999
100
AcDbArc
 50
90.0
 51
223.6498443885353
  0
ARC
  5
2D2
330
1A
100
AcDbEntity
  8
GR1_01
  6
Continuous
 62
     7
370
    13
100
AcDbCircle
 10
718.4975632534256
 20
108.3833139042023
 30
0.0
 40
0.9411764705879999
100
AcDbArc
 50
223.6498443885355
 51
270.0
  0
ARC
  5
2D3
330
1A
100
AcDbEntity
  8
GR1_01
  6
Continuous
 62
     7
370
    13
100
AcDbCircle
 10
720.0799935939832
 20
106.2656668453793
 30
0.0
 40
0.9411764705879999
100
AcDbArc
 50
90.0
 51
223.6498443885353
  0
ARC
  5
2D4
330
1A
100
AcDbEntity
  8
GR1_01
  6
Continuous
 62
     7
370
    13
100
AcDbCircle
 10
720.9778264113203
 20
105.3244903747913
 30
0.0
 40
0.9411764705879999
100
AcDbArc
 50
223.6498443885321
 51
270.0
  0
LINE
  5
2D5
330
1A
100
AcDbEntity
  8
GR1_01
  6
Continuous
 62
     7
370
    13
100
AcDbLine
 10
757.4720519335898
 20
113.0891962571423
 30
0.0
 11
751.9720519335909
 21
113.0891962571423
 31
0.0
  0
LINE
  5
2D6
330
1A
100
AcDbEntity
  8
GR1_01
  6
Continuous
 62
     7
370
    13
100
AcDbLine
 10
751.9720519335909
 20
113.0891962571423
 30
0.0
 11
751.9720519335909
 21
110.8539021394958
 31
0.0
  0
LINE
  5
2D7
330
1A
100
AcDbEntity
  8
GR1_01
  6
Continuous
 62
     7
370
    13
100
AcDbLine
 10
751.9720519335909
 20
110.8539021394958
 30
0.0
 11
757.4720519335898
 21
110.8539021394958
 31
0.0
  0
LINE
  5
2D8
330
1A
100
AcDbEntity
  8
GR1_01
  6
Continuous
 62
     7
370
    13
100
AcDbLine
 10
757.4720519335898
 20
110.8539021394958
 30
0.0
 11
757.4720519335898
 21
113.0891962571423
 31
0.0
  0
LINE
  5
2D9
330
1A
100
AcDbEntity
  8
GR1_01
  6
Continuous
 62
     7
370
    13
100
AcDbLine
 10
757.2220519335898
 20
112.7950786100836
 30
0.0
 11
752.2220519335909
 21
112.7950786100836
 31
0.0
  0
LINE
  5
2DA
330
1A
100
AcDbEntity
  8
GR1_01
  6
Continuous
 62
     7
370
    13
100
AcDbLine
 10
752.2220519335909
 20
112.7950786100836
 30
0.0
 11
752.2220519335909
 21
110.9715491983193
 31
0.0
  0
LINE
  5
2DB
330
1A
100
AcDbEntity
  8
GR1_01
  6
Continuous
 62
     7
370
    13
100
AcDbLine
 10
757.2220519335898
 20
110.9715491983193
 30
0.0
 11
757.22205193359
 21
112.7950786100836
 31
0.0
  0
LINE
  5
2DC
330
1A
100
AcDbEntity
  8
GR1_01
  6
Continuous
 62
     7
370
    13
100
AcDbLine
 10
752.2220519335909
 20
110.9715491983194
 30
0.0
 11
757.2220519335898
 21
110.9715491983193
 31
0.0
  0
LINE
  5
2DD
330
1A
100
AcDbEntity
  8
GR1_01
  6
Continuous
 62
     7
370
    13
100
AcDbLine
 10
757.47205193359
 20
113.0891962571423
 30
0.0
 11
757.2220519335898
 21
112.7950786100836
 31
0.0
  0
LINE
  5
2DE
330
1A
100
AcDbEntity
  8
GR1_01
  6
Continuous
 62
     7
370
    13
100
AcDbLine
 10
751.9720519335909
 20
113.0891962571423
 30
0.0
 11
752.2220519335909
 21
112.7950786100836
 31
0.0
  0
LINE
  5
2DF
330
1A
100
AcDbEntity
  8
GR1_01
  6
Continuous
 62
     7
370
    13
100
AcDbLine
 10
752.2220519335909
 20
110.9715491983194
 30
0.0
 11
751.9720519335909
 21
110.8539021394958
 31
0.0
  0
LINE
  5
2E0
330
1A
100
AcDbEntity
  8
GR1_01
  6
Continuous
 62
     7
370
    13
100
AcDbLine
 10
757.2220519335898
 20
110.9715491983193
 30
0.0
 11
757.47205193359
 21
110.8539021394958
 31
0.0
  0
INSERT
  5
2E4
330
1A
100
AcDbEntity
  8
GR1_01
  6
Continuous
 62
     7
370
    13
100
AcDbBlockReference
  2
BLKF023
 10
0.0
 20
0.0
 30
0.0
  0
LINE
  5
359
330
1A
100
AcDbEntity
  8
GR1_01
  6
Continuous
 62
     7
370
    13
100
AcDbLine
 10
707.2469608787645
 20
113.0891962571423
 30
0.0
 11
712.7469608787634
 21
113.0891962571423
 31
0.0
  0
LINE
  5
35A
330
1A
100
AcDbEntity
  8
GR1_01
  6
Continuous
 62
     7
370
    13
100
AcDbLine
 10
712.7469608787634
 20
113.0891962571423
 30
0.0
 11
712.7469608787634
 21
110.8539021394958
 31
0.0
  0
LINE
  5
35B
330
1A
100
AcDbEntity
  8
GR1_01
  6
Continuous
 62
     7
370
    13
100
AcDbLine
 10
712.7469608787634
 20
110.8539021394958
 30
0.0
 11
707.2469608787645
 21
110.8539021394958
 31
0.0
  0
LINE
  5
35C
330
1A
100
AcDbEntity
  8
GR1_01
  6
Continuous
 62
     7
370
    13
100
AcDbLine
 10
707.2469608787645
 20
110.8539021394958
 30
0.0
 11
707.2469608787645
 21
113.0891962571423
 31
0.0
  0
LINE
  5
35D
330
1A
100
AcDbEntity
  8
GR1_01
  6
Continuous
 62
     7
370
    13
100
AcDbLine
 10
707.4969608787645
 20
112.7950786100836
 30
0.0
 11
712.4969608787634
 21
112.7950786100836
 31
0.0
  0
LINE
  5
35E
330
1A
100
AcDbEntity
  8
GR1_01
  6
Continuous
 62
     7
370
    13
100
AcDbLine
 10
712.4969608787634
 20
112.7950786100836
 30
0.0
 11
712.4969608787634
 21
110.9715491983193
 31
0.0
  0
LINE
  5
35F
330
1A
100
AcDbEntity
  8
GR1_01
  6
Continuous
 62
     7
370
    13
100
AcDbLine
 10
707.4969608787645
 20
110.9715491983193
 30
0.0
 11
707.4969608787643
 21
112.7950786100836
 31
0.0
  0
LINE
  5
360
330
1A
100
AcDbEntity
  8
GR1_01
  6
Continuous
 62
     7
370
    13
100
AcDbLine
 10
712.4969608787634
 20
110.9715491983194
 30
0.0
 11
707.4969608787645
 21
110.9715491983193
 31
0.0
  0
LINE
  5
361
330
1A
100
AcDbEntity
  8
GR1_01
  6
Continuous
 62
     7
370
    13
100
AcDbLine
 10
707.2469608787643
 20
113.0891962571423
 30
0.0
 11
707.4969608787645
 21
112.7950786100836
 31
0.0
  0
LINE
  5
362
330
1A
100
AcDbEntity
  8
GR1_01
  6
Continuous
 62
     7
370
    13
100
AcDbLine
 10
712.7469608787634
 20
113.0891962571423
 30
0.0
 11
712.4969608787634
 21
112.7950786100836
 31
0.0
  0
LINE
  5
363
330
1A
100
AcDbEntity
  8
GR1_01
  6
Continuous
 62
     7
370
    13
100
AcDbLine
 10
712.4969608787634
 20
110.9715491983194
 30
0.0
 11
712.7469608787634
 21
110.8539021394958
 31
0.0
  0
LINE
  5
364
330
1A
100
AcDbEntity
  8
GR1_01
  6
Continuous
 62
     7
370
    13
100
AcDbLine
 10
707.4969608787645
 20
110.9715491983193
 30
0.0
 11
707.2469608787643
 21
110.8539021394958
 31
0.0
  0
INSERT
  5
368
330
1A
100
AcDbEntity
  8
GR1_01
  6
Continuous
 62
     7
370
    13
100
AcDbBlockReference
  2
BLKF024
 10
0.0
 20
0.0
 30
0.0
  0
LINE
  5
3DD
330
1A
100
AcDbEntity
  8
GR1_01
  6
Continuous
 62
     7
370
    13
100
AcDbLine
 10
746.1260041902035
 20
105.9741367513231
 30
0.0
 11
747.0238370075408
 21
106.9153132219112
 31
0.0
  0
LINE
  5
3DE
330
1A
100
AcDbEntity
  8
GR1_01
  6
Continuous
 62
     7
370
    13
100
AcDbLine
 10
748.0470519335859
 20
106.2362550806732
 30
0.0
 11
748.0470519335859
 21
105.353902139497
 31
0.0
  0
LINE
  5
3DF
330
1A
100
AcDbEntity
  8
GR1_01
  6
Continuous
 62
     7
370
    13
100
AcDbLine
 10
748.0470519335859
 20
105.353902139497
 30
0.0
 11
748.2823460512328
 21
105.7950786100851
 31
0.0
  0
LINE
  5
3E0
330
1A
100
AcDbEntity
  8
GR1_01
  6
Continuous
 62
     7
370
    13
100
AcDbLine
 10
748.2823460512328
 20
105.7950786100851
 30
0.0
 11
748.0470519335859
 21
106.2362550806732
 31
0.0
  0
ARC
  5
3E1
330
1A
100
AcDbEntity
  8
GR1_01
  6
Continuous
 62
     7
370
    13
100
AcDbCircle
 10
746.8070128056024
 20
105.3244903747913
 30
0.0
 40
0.9411764705879999
100
AcDbArc
 50
136.3501556114678
 51
270.0
  0
ARC
  5
3E2
330
1A
100
AcDbEntity
  8
GR1_01
  6
Continuous
 62
     7
370
    13
100
AcDbCircle
 10
747.7048456229398
 20
106.2656668453793
 30
0.0
 40
0.9411764705879999
100
AcDbArc
 50
90.0
 51
136.3501556114638
  0
LINE
  5
3E3
330
1A
100
AcDbEntity
  8
GR1_01
  6
Continuous
 62
     7
370
    13
100
AcDbLine
 10
748.6062673480983
 20
109.0329602807341
 30
0.0
 11
749.5041001654355
 21
109.9741367513222
 31
0.0
  0
LINE
  5
3E4
330
1A
100
AcDbEntity
  8
GR1_01
  6
Continuous
 62
     7
370
    13
100
AcDbLine
 10
750.5273150914804
 20
109.2950786100845
 30
0.0
 11
750.5273150914804
 21
108.4127256689083
 31
0.0
  0
LINE
  5
3E5
330
1A
100
AcDbEntity
  8
GR1_01
  6
Continuous
 62
     7
370
    13
100
AcDbLine
 10
750.5273150914804
 20
108.4127256689083
 30
0.0
 11
750.7626092091275
 21
108.8539021394964
 31
0.0
  0
LINE
  5
3E6
330
1A
100
AcDbEntity
  8
GR1_01
  6
Continuous
 62
     7
370
    13
100
AcDbLine
 10
750.7626092091275
 20
108.8539021394964
 30
0.0
 11
750.5273150914804
 21
109.2950786100845
 31
0.0
  0
ARC
  5
3E7
330
1A
100
AcDbEntity
  8
GR1_01
  6
Continuous
 62
     7
370
    13
100
AcDbCircle
 10
749.287275963497
 20
108.3833139042023
 30
0.0
 40
0.9411764705879999
100
AcDbArc
 50
136.3501556114678
 51
270.0
  0
ARC
  5
3E8
330
1A
100
AcDbEntity
  8
GR1_01
  6
Continuous
 62
     7
370
    13
100
AcDbCircle
 10
750.1851087808345
 20
109.3244903747903
 30
0.0
 40
0.9411764705879999
100
AcDbArc
 50
90.0
 51
136.3501556114638
  0
LINE
  5
3E9
330
1A
100
AcDbEntity
  8
GR1_01
  6
Continuous
 62
     7
370
    13
100
AcDbLine
 10
747.7048456229398
 20
107.2068433159673
 30
0.0
 11
758.4698394034617
 21
107.2068433159673
 31
0.0
  0
LINE
  5
3EA
330
1A
100
AcDbEntity
  8
GR1_01
  6
Continuous
 62
     7
370
    13
100
AcDbLine
 10
746.8070128056024
 20
104.3833139042033
 30
0.0
 11
758.8877960598084
 21
104.3833139042033
 31
0.0
  0
LINE
  5
3EB
330
1A
100
AcDbEntity
  8
GR1_01
  6
Continuous
 62
     7
370
    13
100
AcDbLine
 10
758.3769461344214
 20
109.7601658134102
 30
0.0
 11
758.7949027907678
 21
108.3484011075283
 31
0.0
  0
LINE
  5
3EC
330
1A
100
AcDbEntity
  8
GR1_01
  6
Continuous
 62
     7
370
    13
100
AcDbLine
 10
749.287275963497
 20
107.4421374336143
 30
0.0
 11
758.1180592177034
 21
107.4421374336143
 31
0.0
  0
LINE
  5
3ED
330
1A
100
AcDbEntity
  8
GR1_01
  6
Continuous
 62
     7
370
    13
100
AcDbLine
 10
759.1466829765263
 20
106.7013422839993
 30
0.0
 11
759.5646396328727
 21
105.2895775781172
 31
0.0
  0
LINE
  5
3EE
330
1A
100
AcDbEntity
  8
GR1_01
  6
Continuous
 62
     7
370
    13
100
AcDbLine
 10
750.1851087808345
 20
110.2656668453783
 30
0.0
 11
757.7001025613567
 21
110.2656668453783
 31
0.0
  0
ARC
  5
3EF
330
1A
100
AcDbEntity
  8
GR1_01
  6
Continuous
 62
     7
370
    13
100
AcDbCircle
 10
757.7001025613567
 20
109.5597844924373
 30
0.0
 40
0.705882352941
100
AcDbArc
 50
16.49152630590778
 51
90.0
  0
ARC
  5
3F0
330
1A
100
AcDbEntity
  8
GR1_01
  6
Continuous
 62
     7
370
    13
100
AcDbCircle
 10
758.1180592177034
 20
108.1480197865553
 30
0.0
 40
0.705882352941
100
AcDbArc
 50
270.0
 51
16.49152630590775
  0
ARC
  5
3F1
330
1A
100
AcDbEntity
  8
GR1_01
  6
Continuous
 62
     7
370
    13
100
AcDbCircle
 10
758.4698394034617
 20
106.5009609630263
 30
0.0
 40
0.705882352941
100
AcDbArc
 50
16.49152630590778
 51
90.0
  0
ARC
  5
3F2
330
1A
100
AcDbEntity
  8
GR1_01
  6
Continuous
 62
     7
370
    13
100
AcDbCircle
 10
758.8877960598084
 20
105.0891962571443
 30
0.0
 40
0.705882352941
100
AcDbArc
 50
270.0
 51
16.49152630590775
  0
LINE
  5
3F3
330
1A
100
AcDbEntity
  8
GR1_01
  6
Continuous
 62
     7
370
    13
100
AcDbLine
 10
748.2823460512328
 20
105.795078610085
 30
0.0
 11
757.5064946580491
 21
105.7950786100852
 31
0.0
  0
LINE
  5
3F4
330
1A
100
AcDbEntity
  8
GR1_01
  6
Continuous
 62
     7
370
    13
100
AcDbLine
 10
757.7417887756959
 20
105.3539021394971
 30
0.0
 11
757.7417887756959
 21
106.2362550806733
 31
0.0
  0
LINE
  5
3F5
330
1A
100
AcDbEntity
  8
GR1_01
  6
Continuous
 62
     7
370
    13
100
AcDbLine
 10
757.7417887756959
 20
106.2362550806733
 30
0.0
 11
757.5064946580491
 21
105.7950786100852
 31
0.0
  0
LINE
  5
3F6
330
1A
100
AcDbEntity
  8
GR1_01
  6
Continuous
 62
     7
370
    13
100
AcDbLine
 10
757.5064946580491
 20
105.7950786100852
 30
0.0
 11
757.7417887756959
 21
105.3539021394971
 31
0.0
  0
LINE
  5
3F7
330
1A
100
AcDbEntity
  8
GR1_01
  6
Continuous
 62
     7
370
    13
100
AcDbLine
 10
748.0470519335859
 20
106.2362550806732
 30
0.0
 11
757.7417887756959
 21
106.2362550806734
 31
0.0
  0
LINE
  5
3F8
330
1A
100
AcDbEntity
  8
GR1_01
  6
Continuous
 62
     7
370
    13
100
AcDbLine
 10
757.7417887756959
 20
105.3539021394971
 30
0.0
 11
748.0470519335859
 21
105.3539021394969
 31
0.0
  0
LINE
  5
3F9
330
1A
100
AcDbEntity
  8
GR1_01
  6
Continuous
 62
     7
370
    13
100
AcDbLine
 10
756.9720519335907
 20
108.4127256689081
 30
0.0
 11
756.9720519335907
 21
109.2950786100844
 31
0.0
  0
LINE
  5
3FA
330
1A
100
AcDbEntity
  8
GR1_01
  6
Continuous
 62
     7
370
    13
100
AcDbLine
 10
756.9720519335907
 20
109.2950786100844
 30
0.0
 11
756.7367578159437
 21
108.8539021394963
 31
0.0
  0
LINE
  5
3FB
330
1A
100
AcDbEntity
  8
GR1_01
  6
Continuous
 62
     7
370
    13
100
AcDbLine
 10
756.7367578159437
 20
108.8539021394963
 30
0.0
 11
756.9720519335907
 21
108.4127256689081
 31
0.0
  0
LINE
  5
3FC
330
1A
100
AcDbEntity
  8
GR1_01
  6
Continuous
 62
     7
370
    13
100
AcDbLine
 10
750.5273150914804
 20
109.2950786100845
 30
0.0
 11
756.9720519335907
 21
109.2950786100844
 31
0.0
  0
LINE
  5
3FD
330
1A
100
AcDbEntity
  8
GR1_01
  6
Continuous
 62
     7
370
    13
100
AcDbLine
 10
756.9720519335907
 20
108.4127256689081
 30
0.0
 11
750.5273150914804
 21
108.4127256689083
 31
0.0
  0
LINE
  5
3FE
330
1A
100
AcDbEntity
  8
GR1_01
  6
Continuous
 62
     7
370
    13
100
AcDbLine
 10
750.7626092091275
 20
108.8539021394964
 30
0.0
 11
756.7367578159437
 21
108.8539021394962
 31
0.0
  0
LINE
  5
3FF
330
1A
100
AcDbEntity
  8
GR1_01
  6
Continuous
 62
     7
370
    13
100
AcDbLine
 10
718.5930086221508
 20
105.9741367513231
 30
0.0
 11
717.6951758048135
 21
106.9153132219112
 31
0.0
  0
LINE
  5
400
330
1A
100
AcDbEntity
  8
GR1_01
  6
Continuous
 62
     7
370
    13
100
AcDbLine
 10
716.6719608787685
 20
106.2362550806732
 30
0.0
 11
716.6719608787685
 21
105.353902139497
 31
0.0
  0
LINE
  5
401
330
1A
100
AcDbEntity
  8
GR1_01
  6
Continuous
 62
     7
370
    13
100
AcDbLine
 10
716.6719608787685
 20
105.353902139497
 30
0.0
 11
716.4366667611215
 21
105.7950786100851
 31
0.0
  0
LINE
  5
402
330
1A
100
AcDbEntity
  8
GR1_01
  6
Continuous
 62
     7
370
    13
100
AcDbLine
 10
716.4366667611215
 20
105.7950786100851
 30
0.0
 11
716.6719608787685
 21
106.2362550806732
 31
0.0
  0
ARC
  5
403
330
1A
100
AcDbEntity
  8
GR1_01
  6
Continuous
 62
     7
370
    13
100
AcDbCircle
 10
717.9120000067519
 20
105.3244903747913
 30
0.0
 40
0.9411764705879999
100
AcDbArc
 50
270.0
 51
43.64984438853216
  0
ARC
  5
404
330
1A
100
AcDbEntity
  8
GR1_01
  6
Continuous
 62
     7
370
    13
100
AcDbCircle
 10
717.0141671894145
 20
106.2656668453793
 30
0.0
 40
0.9411764705879999
100
AcDbArc
 50
43.64984438853606
 51
90.0
  0
LINE
  5
405
330
1A
100
AcDbEntity
  8
GR1_01
  6
Continuous
 62
     7
370
    13
100
AcDbLine
 10
716.112745464256
 20
109.0329602807341
 30
0.0
 11
715.2149126469188
 21
109.9741367513222
 31
0.0
  0
LINE
  5
406
330
1A
100
AcDbEntity
  8
GR1_01
  6
Continuous
 62
     7
370
    13
100
AcDbLine
 10
714.1916977208739
 20
109.2950786100845
 30
0.0
 11
714.1916977208739
 21
108.4127256689083
 31
0.0
  0
LINE
  5
407
330
1A
100
AcDbEntity
  8
GR1_01
  6
Continuous
 62
     7
370
    13
100
AcDbLine
 10
714.1916977208739
 20
108.4127256689083
 30
0.0
 11
713.9564036032268
 21
108.8539021394964
 31
0.0
  0
LINE
  5
408
330
1A
100
AcDbEntity
  8
GR1_01
  6
Continuous
 62
     7
370
    13
100
AcDbLine
 10
713.9564036032268
 20
108.8539021394964
 30
0.0
 11
714.1916977208739
 21
109.2950786100845
 31
0.0
  0
ARC
  5
409
330
1A
100
AcDbEntity
  8
GR1_01
  6
Continuous
 62
     7
370
    13
100
AcDbCircle
 10
715.4317368488573
 20
108.3833139042023
 30
0.0
 40
0.9411764705879999
100
AcDbArc
 50
270.0
 51
43.64984438853216
  0
ARC
  5
40A
330
1A
100
AcDbEntity
  8
GR1_01
  6
Continuous
 62
     7
370
    13
100
AcDbCircle
 10
714.5339040315198
 20
109.3244903747903
 30
0.0
 40
0.9411764705879999
100
AcDbArc
 50
43.64984438853606
 51
90.0
  0
LINE
  5
40B
330
1A
100
AcDbEntity
  8
GR1_01
  6
Continuous
 62
     7
370
    13
100
AcDbLine
 10
717.0141671894145
 20
107.2068433159673
 30
0.0
 11
706.2491734088926
 21
107.2068433159673
 31
0.0
  0
LINE
  5
40C
330
1A
100
AcDbEntity
  8
GR1_01
  6
Continuous
 62
     7
370
    13
100
AcDbLine
 10
717.9120000067519
 20
104.3833139042033
 30
0.0
 11
705.831216752546
 21
104.3833139042033
 31
0.0
  0
LINE
  5
40D
330
1A
100
AcDbEntity
  8
GR1_01
  6
Continuous
 62
     7
370
    13
100
AcDbLine
 10
706.342066677933
 20
109.7601658134102
 30
0.0
 11
705.9241100215866
 21
108.3484011075283
 31
0.0
  0
LINE
  5
40E
330
1A
100
AcDbEntity
  8
GR1_01
  6
Continuous
 62
     7
370
    13
100
AcDbLine
 10
715.4317368488573
 20
107.4421374336143
 30
0.0
 11
706.600953594651
 21
107.4421374336143
 31
0.0
  0
LINE
  5
40F
330
1A
100
AcDbEntity
  8
GR1_01
  6
Continuous
 62
     7
370
    13
100
AcDbLine
 10
705.572329835828
 20
106.7013422839993
 30
0.0
 11
705.1543731794816
 21
105.2895775781172
 31
0.0
  0
LINE
  5
410
330
1A
100
AcDbEntity
  8
GR1_01
  6
Continuous
 62
     7
370
    13
100
AcDbLine
 10
714.5339040315198
 20
110.2656668453783
 30
0.0
 11
707.0189102509976
 21
110.2656668453783
 31
0.0
  0
ARC
  5
411
330
1A
100
AcDbEntity
  8
GR1_01
  6
Continuous
 62
     7
370
    13
100
AcDbCircle
 10
707.0189102509976
 20
109.5597844924373
 30
0.0
 40
0.705882352941
100
AcDbArc
 50
90.0
 51
163.5084736940917
  0
ARC
  5
412
330
1A
100
AcDbEntity
  8
GR1_01
  6
Continuous
 62
     7
370
    13
100
AcDbCircle
 10
706.600953594651
 20
108.1480197865553
 30
0.0
 40
0.705882352941
100
AcDbArc
 50
163.5084736940917
 51
270.0
  0
ARC
  5
413
330
1A
100
AcDbEntity
  8
GR1_01
  6
Continuous
 62
     7
370
    13
100
AcDbCircle
 10
706.2491734088926
 20
106.5009609630263
 30
0.0
 40
0.705882352941
100
AcDbArc
 50
90.0
 51
163.5084736940917
  0
ARC
  5
414
330
1A
100
AcDbEntity
  8
GR1_01
  6
Continuous
 62
     7
370
    13
100
AcDbCircle
 10
705.831216752546
 20
105.0891962571443
 30
0.0
 40
0.705882352941
100
AcDbArc
 50
163.5084736940917
 51
270.0
  0
LINE
  5
415
330
1A
100
AcDbEntity
  8
GR1_01
  6
Continuous
 62
     7
370
    13
100
AcDbLine
 10
716.4366667611215
 20
105.795078610085
 30
0.0
 11
707.2125181543053
 21
105.7950786100852
 31
0.0
  0
LINE
  5
416
330
1A
100
AcDbEntity
  8
GR1_01
  6
Continuous
 62
     7
370
    13
100
AcDbLine
 10
706.9772240366584
 20
105.3539021394971
 30
0.0
 11
706.9772240366584
 21
106.2362550806733
 31
0.0
  0
LINE
  5
417
330
1A
100
AcDbEntity
  8
GR1_01
  6
Continuous
 62
     7
370
    13
100
AcDbLine
 10
706.9772240366584
 20
106.2362550806733
 30
0.0
 11
707.2125181543053
 21
105.7950786100852
 31
0.0
  0
LINE
  5
418
330
1A
100
AcDbEntity
  8
GR1_01
  6
Continuous
 62
     7
370
    13
100
AcDbLine
 10
707.2125181543053
 20
105.7950786100852
 30
0.0
 11
706.9772240366584
 21
105.3539021394971
 31
0.0
  0
LINE
  5
419
330
1A
100
AcDbEntity
  8
GR1_01
  6
Continuous
 62
     7
370
    13
100
AcDbLine
 10
716.6719608787685
 20
106.2362550806732
 30
0.0
 11
706.9772240366584
 21
106.2362550806734
 31
0.0
  0
LINE
  5
41A
330
1A
100
AcDbEntity
  8
GR1_01
  6
Continuous
 62
     7
370
    13
100
AcDbLine
 10
706.9772240366584
 20
105.3539021394971
 30
0.0
 11
716.6719608787685
 21
105.3539021394969
 31
0.0
  0
LINE
  5
41B
330
1A
100
AcDbEntity
  8
GR1_01
  6
Continuous
 62
     7
370
    13
100
AcDbLine
 10
707.7469608787636
 20
108.4127256689081
 30
0.0
 11
707.7469608787636
 21
109.2950786100844
 31
0.0
  0
LINE
  5
41C
330
1A
100
AcDbEntity
  8
GR1_01
  6
Continuous
 62
     7
370
    13
100
AcDbLine
 10
707.7469608787636
 20
109.2950786100844
 30
0.0
 11
707.9822549964106
 21
108.8539021394963
 31
0.0
  0
LINE
  5
41D
330
1A
100
AcDbEntity
  8
GR1_01
  6
Continuous
 62
     7
370
    13
100
AcDbLine
 10
707.9822549964106
 20
108.8539021394963
 30
0.0
 11
707.7469608787636
 21
108.4127256689081
 31
0.0
  0
LINE
  5
41E
330
1A
100
AcDbEntity
  8
GR1_01
  6
Continuous
 62
     7
370
    13
100
AcDbLine
 10
714.1916977208739
 20
109.2950786100845
 30
0.0
 11
707.7469608787636
 21
109.2950786100844
 31
0.0
  0
LINE
  5
41F
330
1A
100
AcDbEntity
  8
GR1_01
  6
Continuous
 62
     7
370
    13
100
AcDbLine
 10
707.7469608787636
 20
108.4127256689081
 30
0.0
 11
714.1916977208739
 21
108.4127256689083
 31
0.0
  0
LINE
  5
420
330
1A
100
AcDbEntity
  8
GR1_01
  6
Continuous
 62
     7
370
    13
100
AcDbLine
 10
713.9564036032268
 20
108.8539021394964
 30
0.0
 11
707.9822549964106
 21
108.8539021394962
 31
0.0
  0
LINE
  5
421
330
1A
100
AcDbEntity
  8
GR1_01
  6
Continuous
 62
     7
370
    13
100
AcDbLine
 10
803.3595064061774
 20
124.2908174495961
 30
0.0
 11
802.3595064061774
 21
124.2908174495961
 31
0.0
  0
LINE
  5
422
330
1A
100
AcDbEntity
  8
GR1_01
  6
Continuous
 62
     7
370
    13
100
AcDbLine
 10
802.3595064061774
 20
122.7908174495961
 30
0.0
 11
802.3595064061774
 21
108.7908174495961
 31
0.0
  0
LINE
  5
423
330
1A
100
AcDbEntity
  8
GR1_01
  6
Continuous
 62
     7
370
    13
100
AcDbLine
 10
803.3595064061774
 20
108.7908174495961
 30
0.0
 11
803.3595064061774
 21
122.7908174495961
 31
0.0
  0
LINE
  5
424
330
1A
100
AcDbEntity
  8
GR1_01
  6
Continuous
 62
     7
370
    13
100
AcDbLine
 10
803.3595064061774
 20
108.7908174495961
 30
0.0
 11
802.8595064061774
 21
107.7908174495961
 31
0.0
  0
LINE
  5
425
330
1A
100
AcDbEntity
  8
GR1_01
  6
Continuous
 62
     7
370
    13
100
AcDbLine
 10
802.3595064061774
 20
108.7908174495961
 30
0.0
 11
802.8595064061774
 21
107.7908174495961
 31
0.0
  0
LINE
  5
426
330
1A
100
AcDbEntity
  8
GR1_01
  6
Continuous
 62
     7
370
    13
100
AcDbLine
 10
803.8595064061774
 20
122.7908174495961
 30
0.0
 11
803.3595064061773
 21
122.7908174495961
 31
0.0
  0
LINE
  5
427
330
1A
100
AcDbEntity
  8
GR1_01
  6
Continuous
 62
     7
370
    13
100
AcDbLine
 10
803.8595064061774
 20
122.7908174495961
 30
0.0
 11
803.3595064061773
 21
124.2908174495961
 31
0.0
  0
LINE
  5
428
330
1A
100
AcDbEntity
  8
GR1_01
  6
Continuous
 62
     7
370
    13
100
AcDbLine
 10
802.3595064061773
 20
124.2908174495961
 30
0.0
 11
801.8595064061774
 21
122.7908174495961
 31
0.0
  0
LINE
  5
429
330
1A
100
AcDbEntity
  8
GR1_01
  6
Continuous
 62
     7
370
    13
100
AcDbLine
 10
802.3595064061773
 20
122.7908174495961
 30
0.0
 11
801.8595064061774
 21
122.7908174495961
 31
0.0
  0
LINE
  5
42A
330
1A
100
AcDbEntity
  8
GR1_01
  6
Continuous
 62
     7
370
    13
100
AcDbLine
 10
833.1595064061772
 20
123.5063651399248
 30
0.0
 11
832.5595064061772
 21
123.5063651399248
 31
0.0
  0
LINE
  5
42B
330
1A
100
AcDbEntity
  8
GR1_01
  6
Continuous
 62
     7
370
    13
100
AcDbLine
 10
832.3595064061774
 20
122.2063651399248
 30
0.0
 11
832.3595064061774
 21
121.4063651399248
 31
0.0
  0
LINE
  5
42C
330
1A
100
AcDbEntity
  8
GR1_01
  6
Continuous
 62
     7
370
    13
100
AcDbLine
 10
833.3595064061774
 20
110.2063651399249
 30
0.0
 11
833.3595064061774
 21
120.2063651399248
 31
0.0
  0
LINE
  5
42D
330
1A
100
AcDbEntity
  8
GR1_01
  6
Continuous
 62
     7
370
    13
100
AcDbLine
 10
832.3595064061774
 20
110.2063651399248
 30
0.0
 11
832.7845064061775
 21
110.2063651399248
 31
0.0
  0
LINE
  5
42E
330
1A
100
AcDbEntity
  8
GR1_01
  6
Continuous
 62
     7
370
    13
100
AcDbLine
 10
832.3595064061774
 20
110.6063651399248
 30
0.0
 11
832.7845064061775
 21
110.6063651399248
 31
0.0
  0
LINE
  5
42F
330
1A
100
AcDbEntity
  8
GR1_01
  6
Continuous
 62
     7
370
    13
100
AcDbLine
 10
832.3595064061774
 20
110.8063651399248
 30
0.0
 11
832.7845064061775
 21
110.8063651399248
 31
0.0
  0
LINE
  5
430
330
1A
100
AcDbEntity
  8
GR1_01
  6
Continuous
 62
     7
370
    13
100
AcDbLine
 10
832.3595064061774
 20
111.0063651399248
 30
0.0
 11
832.7845064061775
 21
111.0063651399248
 31
0.0
  0
LINE
  5
431
330
1A
100
AcDbEntity
  8
GR1_01
  6
Continuous
 62
     7
370
    13
100
AcDbLine
 10
832.3595064061774
 20
111.2063651399248
 30
0.0
 11
832.7845064061775
 21
111.2063651399248
 31
0.0
  0
LINE
  5
432
330
1A
100
AcDbEntity
  8
GR1_01
  6
Continuous
 62
     7
370
    13
100
AcDbLine
 10
832.3595064061774
 20
111.4063651399248
 30
0.0
 11
832.7845064061775
 21
111.4063651399248
 31
0.0
  0
LINE
  5
433
330
1A
100
AcDbEntity
  8
GR1_01
  6
Continuous
 62
     7
370
    13
100
AcDbLine
 10
832.3595064061774
 20
111.6063651399248
 30
0.0
 11
832.7845064061775
 21
111.6063651399248
 31
0.0
  0
LINE
  5
434
330
1A
100
AcDbEntity
  8
GR1_01
  6
Continuous
 62
     7
370
    13
100
AcDbLine
 10
832.3595064061774
 20
111.8063651399248
 30
0.0
 11
832.7845064061775
 21
111.8063651399248
 31
0.0
  0
LINE
  5
435
330
1A
100
AcDbEntity
  8
GR1_01
  6
Continuous
 62
     7
370
    13
100
AcDbLine
 10
832.3595064061774
 20
112.0063651399248
 30
0.0
 11
832.7845064061775
 21
112.0063651399248
 31
0.0
  0
LINE
  5
436
330
1A
100
AcDbEntity
  8
GR1_01
  6
Continuous
 62
     7
370
    13
100
AcDbLine
 10
832.7845064061775
 20
110.2063651399248
 30
0.0
 11
832.7845064061775
 21
112.2063651399248
 31
0.0
  0
LINE
  5
437
330
1A
100
AcDbEntity
  8
GR1_01
  6
Continuous
 62
     7
370
    13
100
AcDbLine
 10
832.9345064061774
 20
110.2063651399248
 30
0.0
 11
832.9345064061774
 21
112.2063651399248
 31
0.0
  0
LINE
  5
438
330
1A
100
AcDbEntity
  8
GR1_01
  6
Continuous
 62
     7
370
    13
100
AcDbLine
 10
832.7845064061775
 20
112.2063651399248
 30
0.0
 11
832.9345064061774
 21
112.2063651399248
 31
0.0
  0
LINE
  5
439
330
1A
100
AcDbEntity
  8
GR1_01
  6
Continuous
 62
     7
370
    13
100
AcDbLine
 10
832.9345064061774
 20
110.2063651399248
 30
0.0
 11
833.3595064061774
 21
110.2063651399248
 31
0.0
  0
LINE
  5
43A
330
1A
100
AcDbEntity
  8
GR1_01
  6
Continuous
 62
     7
370
    13
100
AcDbLine
 10
832.9345064061774
 20
110.6063651399248
 30
0.0
 11
833.3595064061774
 21
110.6063651399248
 31
0.0
  0
LINE
  5
43B
330
1A
100
AcDbEntity
  8
GR1_01
  6
Continuous
 62
     7
370
    13
100
AcDbLine
 10
832.9345064061774
 20
110.8063651399248
 30
0.0
 11
833.3595064061774
 21
110.8063651399248
 31
0.0
  0
LINE
  5
43C
330
1A
100
AcDbEntity
  8
GR1_01
  6
Continuous
 62
     7
370
    13
100
AcDbLine
 10
832.9345064061774
 20
111.0063651399248
 30
0.0
 11
833.3595064061774
 21
111.0063651399248
 31
0.0
  0
LINE
  5
43D
330
1A
100
AcDbEntity
  8
GR1_01
  6
Continuous
 62
     7
370
    13
100
AcDbLine
 10
832.9345064061774
 20
111.2063651399248
 30
0.0
 11
833.3595064061774
 21
111.2063651399248
 31
0.0
  0
LINE
  5
43E
330
1A
100
AcDbEntity
  8
GR1_01
  6
Continuous
 62
     7
370
    13
100
AcDbLine
 10
832.9345064061774
 20
111.4063651399248
 30
0.0
 11
833.3595064061774
 21
111.4063651399248
 31
0.0
  0
LINE
  5
43F
330
1A
100
AcDbEntity
  8
GR1_01
  6
Continuous
 62
     7
370
    13
100
AcDbLine
 10
832.9345064061774
 20
111.6063651399248
 30
0.0
 11
833.3595064061774
 21
111.6063651399248
 31
0.0
  0
LINE
  5
440
330
1A
100
AcDbEntity
  8
GR1_01
  6
Continuous
 62
     7
370
    13
100
AcDbLine
 10
832.9345064061774
 20
111.8063651399248
 30
0.0
 11
833.3595064061774
 21
111.8063651399248
 31
0.0
  0
LINE
  5
441
330
1A
100
AcDbEntity
  8
GR1_01
  6
Continuous
 62
     7
370
    13
100
AcDbLine
 10
832.9345064061774
 20
112.0063651399248
 30
0.0
 11
833.3595064061774
 21
112.0063651399248
 31
0.0
  0
LINE
  5
442
330
1A
100
AcDbEntity
  8
GR1_01
  6
Continuous
 62
     7
370
    13
100
AcDbLine
 10
833.3595064061774
 20
122.2063651399248
 30
0.0
 11
832.3595064061773
 21
122.2063651399248
 31
0.0
  0
LINE
  5
443
330
1A
100
AcDbEntity
  8
GR1_01
  6
Continuous
 62
     7
370
    13
100
AcDbLine
 10
832.5595064061772
 20
123.5063651399248
 30
0.0
 11
832.5595064061772
 21
122.2063651399248
 31
0.0
  0
LINE
  5
444
330
1A
100
AcDbEntity
  8
GR1_01
  6
Continuous
 62
     7
370
    13
100
AcDbLine
 10
833.3595064061774
 20
122.2063651399248
 30
0.0
 11
833.3595064061774
 21
121.4063651399248
 31
0.0
  0
LINE
  5
445
330
1A
100
AcDbEntity
  8
GR1_01
  6
Continuous
 62
     7
370
    13
100
AcDbLine
 10
833.1595064061772
 20
122.2063651399248
 30
0.0
 11
833.1595064061772
 21
123.5063651399248
 31
0.0
  0
LINE
  5
446
330
1A
100
AcDbEntity
  8
GR1_01
  6
Continuous
 62
     7
370
    13
100
AcDbLine
 10
833.5595064061772
 20
121.4063651399248
 30
0.0
 11
832.1595064061772
 21
121.4063651399248
 31
0.0
  0
LINE
  5
447
330
1A
100
AcDbEntity
  8
GR1_01
  6
Continuous
 62
     7
370
    13
100
AcDbLine
 10
833.7595064061773
 20
120.4063651399248
 30
0.0
 11
831.9595064061773
 21
120.4063651399248
 31
0.0
  0
LINE
  5
448
330
1A
100
AcDbEntity
  8
GR1_01
  6
Continuous
 62
     7
370
    13
100
AcDbLine
 10
833.5595064061772
 20
121.4063651399248
 30
0.0
 11
833.5595064061772
 21
120.4063651399248
 31
0.0
  0
LINE
  5
449
330
1A
100
AcDbEntity
  8
GR1_01
  6
Continuous
 62
     7
370
    13
100
AcDbLine
 10
832.1595064061772
 20
121.4063651399248
 30
0.0
 11
832.1595064061772
 21
120.4063651399248
 31
0.0
  0
LINE
  5
44A
330
1A
100
AcDbEntity
  8
GR1_01
  6
Continuous
 62
     7
370
    13
100
AcDbLine
 10
833.2595064061773
 20
121.4063651399248
 30
0.0
 11
833.2595064061773
 21
120.4063651399248
 31
0.0
  0
LINE
  5
44B
330
1A
100
AcDbEntity
  8
GR1_01
  6
Continuous
 62
     7
370
    13
100
AcDbLine
 10
832.4595064061773
 20
121.4063651399248
 30
0.0
 11
832.4595064061773
 21
120.4063651399248
 31
0.0
  0
LINE
  5
44C
330
1A
100
AcDbEntity
  8
GR1_01
  6
Continuous
 62
     7
370
    13
100
AcDbLine
 10
832.3595064061774
 20
120.2063651399248
 30
0.0
 11
832.3595064061774
 21
110.2063651399249
 31
0.0
  0
LINE
  5
44D
330
1A
100
AcDbEntity
  8
GR1_01
  6
Continuous
 62
     7
370
    13
100
AcDbLine
 10
833.7595064061773
 20
120.2063651399248
 30
0.0
 11
831.9595064061773
 21
120.2063651399248
 31
0.0
  0
LINE
  5
44E
330
1A
100
AcDbEntity
  8
GR1_01
  6
Continuous
 62
     7
370
    13
100
AcDbLine
 10
833.7595064061773
 20
120.4063651399248
 30
0.0
 11
833.7595064061773
 21
120.2063651399248
 31
0.0
  0
LINE
  5
44F
330
1A
100
AcDbEntity
  8
GR1_01
  6
Continuous
 62
     7
370
    13
100
AcDbLine
 10
831.9595064061773
 20
120.4063651399248
 30
0.0
 11
831.9595064061773
 21
120.2063651399248
 31
0.0
  0
LINE
  5
450
330
1A
100
AcDbEntity
  8
GR1_01
  6
Continuous
 62
     7
370
    13
100
AcDbLine
 10
833.3595064061774
 20
119.7063651399248
 30
0.0
 11
832.3595064061774
 21
119.7063651399248
 31
0.0
  0
HATCH
  5
451
330
1A
100
AcDbEntity
  8
GR1_01
  6
Continuous
 62
     7
370
    13
100
AcDbHatch
 10
0.0
 20
0.0
 30
0.0
210
0.0
220
0.0
230
1.0
  2
_USER
 70
     0
 71
     0
 91
        2
 92
        0
 93
        4
 72
     1
 10
833.3595064061774
 20
119.7063651399248
 11
832.3595064061774
 21
119.7063651399248
 72
     1
 10
832.3595064061774
 20
119.7063651399248
 11
832.3595064061773
 21
120.2063651399248
 72
     1
 10
832.3595064061773
 20
120.2063651399248
 11
833.3595064061774
 21
120.2063651399248
 72
     1
 10
833.3595064061774
 20
120.2063651399248
 11
833.3595064061774
 21
119.7063651399248
 97
        0
 92
        0
 93
        4
 72
     1
 10
832.3595064061776
 20
121.4063651399248
 11
833.3595064061774
 21
121.4063651399248
 72
     1
 10
833.3595064061774
 20
121.4063651399248
 11
833.3595064061774
 21
122.2063651399248
 72
     1
 10
833.3595064061774
 20
122.2063651399248
 11
832.3595064061773
 21
122.2063651399248
 72
     1
 10
832.3595064061773
 20
122.2063651399248
 11
832.3595064061776
 21
121.4063651399248
 97
        0
 75
     0
 76
     0
 52
5.0
 41
0.2
 77
     0
 78
     1
 53
5.0
 43
0.0
 44
0.0
 45
-0.0174311485495316
 46
0.1992389396183491
 79
     0
 98
        0
  0
TEXT
  5
452
330
1A
100
AcDbEntity
  8
GR1_01
  6
Continuous
 62
     7
370
    13
100
AcDbText
 10
799.684619140625
 20
132.0363891601563
 30
0.0
 40
3.5
  1
アスファルト用
 41
0.7853658373762922
  7
FX_VECTOR
 72
     5
 11
815.784618806839
 21
132.0363891601563
 31
0.0
100
AcDbText
  0
TEXT
  5
453
330
1A
100
AcDbEntity
  8
GR1_01
  6
Continuous
 62
     7
370
    13
100
AcDbText
 10
799.684619140625
 20
128.5363891601563
 30
0.0
 40
3.5
  1
アンカーピン
 41
0.788571412222726
  7
FX_VECTOR
 72
     5
 11
813.4846188545228
 21
128.5363891601563
 31
0.0
100
AcDbText
  0
TEXT
  5
454
330
1A
100
AcDbEntity
  8
GR1_01
  6
Continuous
 62
     7
370
    13
100
AcDbText
 10
827.9372070312501
 20
133.5363891601563
 30
0.0
 40
3.5
  1
コンクリート用
 41
0.7853658373762922
  7
FX_VECTOR
 72
     5
 11
844.0372066974641
 21
133.5363891601563
 31
0.0
100
AcDbText
  0
TEXT
  5
455
330
1A
100
AcDbEntity
  8
GR1_01
  6
Continuous
 62
     7
370
    13
100
AcDbText
 10
827.9372070312501
 20
130.0363891601563
 30
0.0
 40
3.5
  1
アンカーピン
 41
0.788571412222726
  7
FX_VECTOR
 72
     5
 11
841.7372067451478
 21
130.0363891601563
 31
0.0
100
AcDbText
  0
TEXT
  5
456
330
1A
100
AcDbEntity
  8
GR1_01
  6
Continuous
 62
     7
370
    13
100
AcDbText
 10
827.9372070312501
 20
126.5363891601563
 30
0.0
 40
3.5
  1
（Ｃ－１０１２）
 41
0.782978707171501
  7
FX_VECTOR
 72
     5
 11
846.3372066497803
 21
126.5363891601563
 31
0.0
100
AcDbText
  0
LINE
  5
457
330
1A
100
AcDbEntity
  8
GR1_01
  6
Continuous
 62
     7
370
    13
100
AcDbLine
 10
832.451732561013
 20
97.39541103026953
 30
0.0
 11
828.251732561013
 21
97.39541103026953
 31
0.0
  0
LINE
  5
458
330
1A
100
AcDbEntity
  8
GR1_01
  6
Continuous
 62
     7
370
    13
100
AcDbLine
 10
828.251732561013
 20
97.39541103026953
 30
0.0
 11
828.251732561013
 21
96.19541103026953
 31
0.0
  0
LINE
  5
459
330
1A
100
AcDbEntity
  8
GR1_01
  6
Continuous
 62
     7
370
    13
100
AcDbLine
 10
828.251732561013
 20
96.19541103026953
 30
0.0
 11
832.451732561013
 21
96.19541103026953
 31
0.0
  0
LINE
  5
45A
330
1A
100
AcDbEntity
  8
GR1_01
  6
Continuous
 62
     7
370
    13
100
AcDbLine
 10
832.451732561013
 20
96.19541103026953
 30
0.0
 11
832.451732561013
 21
97.39541103026953
 31
0.0
  0
TEXT
  5
45B
330
1A
100
AcDbEntity
  8
GR1_01
  6
Continuous
 62
     7
370
    13
100
AcDbText
 10
807.751123046875
 20
100.3954040527344
 30
0.0
 40
3.5
  1
反射板
 41
0.8117646890528062
  7
FX_VECTOR
 72
     5
 11
814.6511229038239
 21
100.3954040527344
 31
0.0
100
AcDbText
  0
TEXT
  5
45C
330
1A
100
AcDbEntity
  8
GR1_01
  6
Continuous
 62
     7
370
    13
100
AcDbText
 10
823.31962890625
 20
100.3954040527344
 30
0.0
 40
3.5
  1
ホールキャップ
 41
0.7853658373762922
  7
FX_VECTOR
 72
     5
 11
839.419628572464
 21
100.3954040527344
 31
0.0
100
AcDbText
  0
TEXT
  5
45D
330
1A
100
AcDbEntity
  8
GR1_01
  6
Continuous
 62
     3
370
    35
100
AcDbText
 10
739.6459472656251
 20
81.71986083984376
 30
0.0
 40
5.0
  1
※アンカー式（接着剤併用）・反射板付
 41
0.9865420567376592
  7
FX_VECTOR
 72
     5
 11
815.045947316289
 21
81.71986083984376
 31
0.0
100
AcDbText
  0
LINE
  5
45E
330
1A
100
AcDbEntity
  8
GR1_01
  6
Continuous
 62
     7
370
    13
100
AcDbLine
 10
813.4142766513726
 20
97.39541103026953
 30
0.0
 11
808.4142766513737
 21
97.39541103026953
 31
0.0
  0
LINE
  5
45F
330
1A
100
AcDbEntity
  8
GR1_01
  6
Continuous
 62
     7
370
    13
100
AcDbLine
 10
808.4142766513737
 20
97.39541103026953
 30
0.0
 11
808.4142766513737
 21
95.5718816185053
 31
0.0
  0
LINE
  5
460
330
1A
100
AcDbEntity
  8
GR1_01
  6
Continuous
 62
     7
370
    13
100
AcDbLine
 10
813.4142766513726
 20
95.57188161850527
 30
0.0
 11
813.4142766513729
 21
97.39541103026953
 31
0.0
  0
LINE
  5
461
330
1A
100
AcDbEntity
  8
GR1_01
  6
Continuous
 62
     7
370
    13
100
AcDbLine
 10
808.4142766513737
 20
95.5718816185053
 30
0.0
 11
813.4142766513726
 21
95.5718816185053
 31
0.0
  0
INSERT
  5
465
330
1A
100
AcDbEntity
  8
GR1_01
  6
Continuous
 62
     7
370
    13
100
AcDbBlockReference
  2
BLKF025
 10
0.0
 20
0.0
 30
0.0
  0
TEXT
  5
4DA
330
1A
100
AcDbEntity
  8
GR1_01
  6
Continuous
 62
     7
370
    13
100
AcDbText
 10
728.9095215559006
 20
182.4127197259604
 30
0.0
 40
3.5
  1
５５０
 41
0.8117646890528062
  7
FX_VECTOR
 72
     5
 11
735.8095214128494
 21
182.4127197271646
 31
0.0
100
AcDbText
  0
LINE
  5
4DB
330
1A
100
AcDbEntity
  8
GR1_01
  6
Continuous
 62
     7
370
    13
100
AcDbLine
 10
704.859506406177
 20
181.4127256689068
 30
0.0
 11
759.8595064061768
 21
181.4127256689068
 31
0.0
  0
INSERT
  5
4DC
330
1A
100
AcDbEntity
  8
GR1_01
  6
Continuous
 62
     7
370
    13
100
AcDbBlockReference
  2
FXTIP_ARROW_S
 10
704.859506406177
 20
181.4127256689068
 30
0.0
 41
2.0
 42
2.0
 50
180.0
  0
INSERT
  5
4DD
330
1A
100
AcDbEntity
  8
GR1_01
  6
Continuous
 62
     7
370
    13
100
AcDbBlockReference
  2
FXTIP_ARROW_E
 10
759.8595064061768
 20
181.4127256689068
 30
0.0
 41
2.0
 42
2.0
 50
360.0
  0
LINE
  5
4DE
330
1A
100
AcDbEntity
  8
GR1_01
  6
Continuous
 62
     7
370
    13
100
AcDbLine
 10
704.8595064061772
 20
173.4127256689068
 30
0.0
 11
704.859506406177
 21
182.4127256689068
 31
0.0
  0
LINE
  5
4DF
330
1A
100
AcDbEntity
  8
GR1_01
  6
Continuous
 62
     7
370
    13
100
AcDbLine
 10
759.8595064061768
 20
173.4127256689067
 30
0.0
 11
759.8595064061768
 21
182.4127256689068
 31
0.0
  0
TEXT
  5
4E0
330
1A
100
AcDbEntity
  8
GR1_01
  6
Continuous
 62
     7
370
    13
100
AcDbText
 10
728.9095215559006
 20
189.4127197259604
 30
0.0
 40
3.5
  1
６００
 41
0.8117646890528062
  7
FX_VECTOR
 72
     5
 11
735.8095214128494
 21
189.4127197271646
 31
0.0
100
AcDbText
  0
LINE
  5
4E1
330
1A
100
AcDbEntity
  8
GR1_01
  6
Continuous
 62
     7
370
    13
100
AcDbLine
 10
702.359506406177
 20
188.4127256689068
 30
0.0
 11
762.359506406177
 21
188.4127256689068
 31
0.0
  0
INSERT
  5
4E2
330
1A
100
AcDbEntity
  8
GR1_01
  6
Continuous
 62
     7
370
    13
100
AcDbBlockReference
  2
FXTIP_ARROW_S
 10
702.359506406177
 20
188.4127256689068
 30
0.0
 41
2.0
 42
2.0
 50
180.0
  0
INSERT
  5
4E3
330
1A
100
AcDbEntity
  8
GR1_01
  6
Continuous
 62
     7
370
    13
100
AcDbBlockReference
  2
FXTIP_ARROW_E
 10
762.359506406177
 20
188.4127256689068
 30
0.0
 41
2.0
 42
2.0
 50
360.0
  0
LINE
  5
4E4
330
1A
100
AcDbEntity
  8
GR1_01
  6
Continuous
 62
     7
370
    13
100
AcDbLine
 10
702.359506406177
 20
173.4127256689068
 30
0.0
 11
702.359506406177
 21
189.4127256689068
 31
0.0
  0
LINE
  5
4E5
330
1A
100
AcDbEntity
  8
GR1_01
  6
Continuous
 62
     7
370
    13
100
AcDbLine
 10
762.359506406177
 20
173.4127256689067
 30
0.0
 11
762.359506406177
 21
189.4127256689068
 31
0.0
  0
TEXT
  5
4E6
330
1A
100
AcDbEntity
  8
GR1_01
  6
Continuous
 62
     7
370
    13
100
AcDbText
 10
771.359521484375
 20
164.8627197742462
 30
0.0
 40
3.5
  1
８５
 50
90.0
 41
0.8363636190241034
  7
FX_VECTOR
 72
     5
 11
771.359521484375
 21
169.4627196788788
 31
0.0
100
AcDbText
  0
LINE
  5
4E7
330
1A
100
AcDbEntity
  8
GR1_01
  6
Continuous
 62
     7
370
    13
100
AcDbLine
 10
772.359506406177
 20
162.9127256689068
 30
0.0
 11
772.359506406177
 21
171.4127256689067
 31
0.0
  0
INSERT
  5
4E8
330
1A
100
AcDbEntity
  8
GR1_01
  6
Continuous
 62
     7
370
    13
100
AcDbBlockReference
  2
FXTIP_ARROW_S
 10
772.359506406177
 20
162.9127256689068
 30
0.0
 41
2.0
 42
2.0
 50
270.0
  0
INSERT
  5
4E9
330
1A
100
AcDbEntity
  8
GR1_01
  6
Continuous
 62
     7
370
    13
100
AcDbBlockReference
  2
FXTIP_ARROW_E
 10
772.359506406177
 20
171.4127256689067
 30
0.0
 41
2.0
 42
2.0
 50
90.0
  0
LINE
  5
4EA
330
1A
100
AcDbEntity
  8
GR1_01
  6
Continuous
 62
     7
370
    13
100
AcDbLine
 10
764.3595064061769
 20
162.9127256689068
 30
0.0
 11
773.359506406177
 21
162.9127256689068
 31
0.0
  0
LINE
  5
4EB
330
1A
100
AcDbEntity
  8
GR1_01
  6
Continuous
 62
     7
370
    13
100
AcDbLine
 10
764.3595064061768
 20
171.4127256689067
 30
0.0
 11
773.359506406177
 21
171.4127256689067
 31
0.0
  0
TEXT
  5
4EC
330
1A
100
AcDbEntity
  8
GR1_01
  6
Continuous
 62
     7
370
    13
100
AcDbText
 10
771.359521484375
 20
153.8127197742462
 30
0.0
 40
3.5
  1
３５
 50
90.0
 41
0.8363636190241034
  7
FX_VECTOR
 72
     5
 11
771.359521484375
 21
158.4127196788788
 31
0.0
100
AcDbText
  0
LINE
  5
4ED
330
1A
100
AcDbEntity
  8
GR1_01
  6
Continuous
 62
     7
370
    13
100
AcDbLine
 10
772.359506406177
 20
159.4127256689068
 30
0.0
 11
772.359506406177
 21
162.9127256689068
 31
0.0
  0
LINE
  5
4EE
330
1A
100
AcDbEntity
  8
GR1_01
  6
Continuous
 62
     7
370
    13
100
AcDbLine
 10
764.3595064061772
 20
159.4127256689068
 30
0.0
 11
773.359506406177
 21
159.4127256689068
 31
0.0
  0
LINE
  5
4EF
330
1A
100
AcDbEntity
  8
GR1_01
  6
Continuous
 62
     7
370
    13
100
AcDbLine
 10
772.359506406177
 20
152.8127256689068
 30
0.0
 11
772.359506406177
 21
159.4127256689068
 31
0.0
  0
INSERT
  5
4F0
330
1A
100
AcDbEntity
  8
GR1_01
  6
Continuous
 62
     7
370
    13
100
AcDbBlockReference
  2
FXTIP_ARROW_E
 10
772.359506406177
 20
159.4127256689068
 30
0.0
 41
2.0
 42
2.0
 50
90.0
  0
TEXT
  5
4F1
330
1A
100
AcDbEntity
  8
GR1_01
  6
Continuous
 62
     7
370
    13
100
AcDbText
 10
778.359521484375
 20
161.9627197980881
 30
0.0
 40
3.5
  1
１２０
 50
90.0
 41
0.8117646890528062
  7
FX_VECTOR
 72
     5
 11
778.359521484375
 21
168.8627196550369
 31
0.0
100
AcDbText
  0
LINE
  5
4F2
330
1A
100
AcDbEntity
  8
GR1_01
  6
Continuous
 62
     7
370
    13
100
AcDbLine
 10
779.359506406177
 20
159.4127256689068
 30
0.0
 11
779.359506406177
 21
171.4127256689067
 31
0.0
  0
INSERT
  5
4F3
330
1A
100
AcDbEntity
  8
GR1_01
  6
Continuous
 62
     7
370
    13
100
AcDbBlockReference
  2
FXTIP_ARROW_S
 10
779.359506406177
 20
159.4127256689068
 30
0.0
 41
2.0
 42
2.0
 50
270.0
  0
INSERT
  5
4F4
330
1A
100
AcDbEntity
  8
GR1_01
  6
Continuous
 62
     7
370
    13
100
AcDbBlockReference
  2
FXTIP_ARROW_E
 10
779.359506406177
 20
171.4127256689067
 30
0.0
 41
2.0
 42
2.0
 50
90.0
  0
LINE
  5
4F5
330
1A
100
AcDbEntity
  8
GR1_01
  6
Continuous
 62
     7
370
    13
100
AcDbLine
 10
764.3595064061772
 20
159.4127256689068
 30
0.0
 11
780.359506406177
 21
159.4127256689068
 31
0.0
  0
LINE
  5
4F6
330
1A
100
AcDbEntity
  8
GR1_01
  6
Continuous
 62
     7
370
    13
100
AcDbLine
 10
764.3595064061767
 20
171.4127256689067
 30
0.0
 11
780.359506406177
 21
171.4127256689067
 31
0.0
  0
TEXT
  5
4F7
330
1A
100
AcDbEntity
  8
GR1_01
  6
Continuous
 62
     7
370
    13
100
AcDbText
 10
763.3595215320588
 20
150.4127197261611
 30
0.0
 40
3.5
  1
１０
 41
0.8363636190241034
  7
FX_VECTOR
 72
     5
 11
767.9595214366914
 21
150.4127197269639
 31
0.0
100
AcDbText
  0
LINE
  5
4F8
330
1A
100
AcDbEntity
  8
GR1_01
  6
Continuous
 62
     7
370
    13
100
AcDbLine
 10
761.3595064061773
 20
149.4127256689067
 30
0.0
 11
762.359506406177
 21
149.4127256689067
 31
0.0
  0
LINE
  5
4F9
330
1A
100
AcDbEntity
  8
GR1_01
  6
Continuous
 62
     7
370
    13
100
AcDbLine
 10
761.3595064061773
 20
157.4127256689068
 30
0.0
 11
761.3595064061773
 21
148.4127256689067
 31
0.0
  0
LINE
  5
4FA
330
1A
100
AcDbEntity
  8
GR1_01
  6
Continuous
 62
     7
370
    13
100
AcDbLine
 10
762.3595064061773
 20
157.4127256689068
 30
0.0
 11
762.359506406177
 21
148.4127256689067
 31
0.0
  0
LINE
  5
4FB
330
1A
100
AcDbEntity
  8
GR1_01
  6
Continuous
 62
     7
370
    13
100
AcDbLine
 10
755.3595064061773
 20
149.4127256689067
 30
0.0
 11
761.3595064061773
 21
149.4127256689067
 31
0.0
  0
INSERT
  5
4FC
330
1A
100
AcDbEntity
  8
GR1_01
  6
Continuous
 62
     7
370
    13
100
AcDbBlockReference
  2
FXTIP_ARROW_E
 10
761.3595064061773
 20
149.4127256689067
 30
0.0
 41
2.0
 42
2.0
 50
360.0
  0
LINE
  5
4FD
330
1A
100
AcDbEntity
  8
GR1_01
  6
Continuous
 62
     7
370
    13
100
AcDbLine
 10
762.359506406177
 20
149.4127256689067
 30
0.0
 11
768.9595064061771
 21
149.4127256689067
 31
0.0
  0
INSERT
  5
4FE
330
1A
100
AcDbEntity
  8
GR1_01
  6
Continuous
 62
     7
370
    13
100
AcDbBlockReference
  2
FXTIP_ARROW_S
 10
762.359506406177
 20
149.4127256689067
 30
0.0
 41
2.0
 42
2.0
 50
180.0
  0
TEXT
  5
4FF
330
1A
100
AcDbEntity
  8
GR1_01
  6
Continuous
 62
     7
370
    13
100
AcDbText
 10
696.7595215320588
 20
150.4127197261611
 30
0.0
 40
3.5
  1
１０
 41
0.8363636190241034
  7
FX_VECTOR
 72
     5
 11
701.3595214366914
 21
150.4127197269639
 31
0.0
100
AcDbText
  0
LINE
  5
500
330
1A
100
AcDbEntity
  8
GR1_01
  6
Continuous
 62
     7
370
    13
100
AcDbLine
 10
702.359506406177
 20
149.4127256689067
 30
0.0
 11
703.359506406177
 21
149.4127256689067
 31
0.0
  0
LINE
  5
501
330
1A
100
AcDbEntity
  8
GR1_01
  6
Continuous
 62
     7
370
    13
100
AcDbLine
 10
702.3595064061769
 20
157.4127256689067
 30
0.0
 11
702.359506406177
 21
148.4127256689067
 31
0.0
  0
LINE
  5
502
330
1A
100
AcDbEntity
  8
GR1_01
  6
Continuous
 62
     7
370
    13
100
AcDbLine
 10
703.359506406177
 20
149.4127256689067
 30
0.0
 11
709.359506406177
 21
149.4127256689067
 31
0.0
  0
INSERT
  5
503
330
1A
100
AcDbEntity
  8
GR1_01
  6
Continuous
 62
     7
370
    13
100
AcDbBlockReference
  2
FXTIP_ARROW_S
 10
703.359506406177
 20
149.4127256689067
 30
0.0
 41
2.0
 42
2.0
 50
180.0
  0
LINE
  5
504
330
1A
100
AcDbEntity
  8
GR1_01
  6
Continuous
 62
     7
370
    13
100
AcDbLine
 10
695.759506406177
 20
149.4127256689067
 30
0.0
 11
702.359506406177
 21
149.4127256689067
 31
0.0
  0
INSERT
  5
505
330
1A
100
AcDbEntity
  8
GR1_01
  6
Continuous
 62
     7
370
    13
100
AcDbBlockReference
  2
FXTIP_ARROW_E
 10
702.359506406177
 20
149.4127256689067
 30
0.0
 41
2.0
 42
2.0
 50
360.0
  0
LINE
  5
506
330
1A
100
AcDbEntity
  8
GR1_01
  6
Continuous
 62
     7
370
    13
100
AcDbLine
 10
703.3595064061769
 20
157.4127256689068
 30
0.0
 11
703.359506406177
 21
148.4127256689067
 31
0.0
  0
TEXT
  5
507
330
1A
100
AcDbEntity
  8
GR1_01
  6
Continuous
 62
     7
370
    13
100
AcDbText
 10
728.9095215559006
 20
143.4127197259604
 30
0.0
 40
3.5
  1
６００
 41
0.8117646890528062
  7
FX_VECTOR
 72
     5
 11
735.8095214128494
 21
143.4127197271646
 31
0.0
100
AcDbText
  0
LINE
  5
508
330
1A
100
AcDbEntity
  8
GR1_01
  6
Continuous
 62
     7
370
    13
100
AcDbLine
 10
702.3595064061769
 20
142.4127256689067
 30
0.0
 11
762.359506406177
 21
142.4127256689067
 31
0.0
  0
INSERT
  5
509
330
1A
100
AcDbEntity
  8
GR1_01
  6
Continuous
 62
     7
370
    13
100
AcDbBlockReference
  2
FXTIP_ARROW_S
 10
702.3595064061769
 20
142.4127256689067
 30
0.0
 41
2.0
 42
2.0
 50
180.0
  0
INSERT
  5
50A
330
1A
100
AcDbEntity
  8
GR1_01
  6
Continuous
 62
     7
370
    13
100
AcDbBlockReference
  2
FXTIP_ARROW_E
 10
762.359506406177
 20
142.4127256689067
 30
0.0
 41
2.0
 42
2.0
 50
360.0
  0
LINE
  5
50B
330
1A
100
AcDbEntity
  8
GR1_01
  6
Continuous
 62
     7
370
    13
100
AcDbLine
 10
702.3595064061769
 20
157.4127256689067
 30
0.0
 11
702.3595064061769
 21
141.4127256689067
 31
0.0
  0
LINE
  5
50C
330
1A
100
AcDbEntity
  8
GR1_01
  6
Continuous
 62
     7
370
    13
100
AcDbLine
 10
762.3595064061772
 20
157.4127256689068
 30
0.0
 11
762.359506406177
 21
141.4127256689067
 31
0.0
  0
TEXT
  5
50D
330
1A
100
AcDbEntity
  8
GR1_01
  6
Continuous
 62
     7
370
    13
100
AcDbText
 10
756.0595215320587
 20
132.9127197261611
 30
0.0
 40
3.5
  1
８０
 41
0.8363636190241034
  7
FX_VECTOR
 72
     5
 11
760.6595214366913
 21
132.9127197269639
 31
0.0
100
AcDbText
  0
LINE
  5
50E
330
1A
100
AcDbEntity
  8
GR1_01
  6
Continuous
 62
     7
370
    13
100
AcDbLine
 10
754.359506406177
 20
131.9127256689068
 30
0.0
 11
762.359506406177
 21
131.9127256689068
 31
0.0
  0
INSERT
  5
50F
330
1A
100
AcDbEntity
  8
GR1_01
  6
Continuous
 62
     7
370
    13
100
AcDbBlockReference
  2
FXTIP_ARROW_S
 10
754.359506406177
 20
131.9127256689068
 30
0.0
 41
2.0
 42
2.0
 50
180.0
  0
INSERT
  5
510
330
1A
100
AcDbEntity
  8
GR1_01
  6
Continuous
 62
     7
370
    13
100
AcDbBlockReference
  2
FXTIP_ARROW_E
 10
762.359506406177
 20
131.9127256689068
 30
0.0
 41
2.0
 42
2.0
 50
360.0
  0
LINE
  5
511
330
1A
100
AcDbEntity
  8
GR1_01
  6
Continuous
 62
     7
370
    13
100
AcDbLine
 10
754.3595064061769
 20
123.9127256689067
 30
0.0
 11
754.359506406177
 21
132.9127256689068
 31
0.0
  0
LINE
  5
512
330
1A
100
AcDbEntity
  8
GR1_01
  6
Continuous
 62
     7
370
    13
100
AcDbLine
 10
762.3595064061769
 20
123.9127256689068
 30
0.0
 11
762.359506406177
 21
132.9127256689068
 31
0.0
  0
TEXT
  5
513
330
1A
100
AcDbEntity
  8
GR1_01
  6
Continuous
 62
     7
370
    13
100
AcDbText
 10
728.9095215559006
 20
132.9127197259604
 30
0.0
 40
3.5
  1
４４０
 41
0.8117646890528062
  7
FX_VECTOR
 72
     5
 11
735.8095214128494
 21
132.9127197271646
 31
0.0
100
AcDbText
  0
LINE
  5
514
330
1A
100
AcDbEntity
  8
GR1_01
  6
Continuous
 62
     7
370
    13
100
AcDbLine
 10
710.359506406177
 20
131.9127256689068
 30
0.0
 11
754.359506406177
 21
131.9127256689068
 31
0.0
  0
INSERT
  5
515
330
1A
100
AcDbEntity
  8
GR1_01
  6
Continuous
 62
     7
370
    13
100
AcDbBlockReference
  2
FXTIP_ARROW_S
 10
710.359506406177
 20
131.9127256689068
 30
0.0
 41
2.0
 42
2.0
 50
180.0
  0
INSERT
  5
516
330
1A
100
AcDbEntity
  8
GR1_01
  6
Continuous
 62
     7
370
    13
100
AcDbBlockReference
  2
FXTIP_ARROW_E
 10
754.359506406177
 20
131.9127256689068
 30
0.0
 41
2.0
 42
2.0
 50
360.0
  0
LINE
  5
517
330
1A
100
AcDbEntity
  8
GR1_01
  6
Continuous
 62
     7
370
    13
100
AcDbLine
 10
710.3595064061769
 20
123.9127256689068
 30
0.0
 11
710.359506406177
 21
132.9127256689068
 31
0.0
  0
TEXT
  5
518
330
1A
100
AcDbEntity
  8
GR1_01
  6
Continuous
 62
     7
370
    13
100
AcDbText
 10
704.0595215320587
 20
132.9127197261611
 30
0.0
 40
3.5
  1
８０
 41
0.8363636190241034
  7
FX_VECTOR
 72
     5
 11
708.6595214366913
 21
132.9127197269639
 31
0.0
100
AcDbText
  0
LINE
  5
519
330
1A
100
AcDbEntity
  8
GR1_01
  6
Continuous
 62
     7
370
    13
100
AcDbLine
 10
702.3595064061769
 20
131.9127256689068
 30
0.0
 11
710.3595064061769
 21
131.9127256689068
 31
0.0
  0
INSERT
  5
51A
330
1A
100
AcDbEntity
  8
GR1_01
  6
Continuous
 62
     7
370
    13
100
AcDbBlockReference
  2
FXTIP_ARROW_S
 10
702.3595064061769
 20
131.9127256689068
 30
0.0
 41
2.0
 42
2.0
 50
180.0
  0
INSERT
  5
51B
330
1A
100
AcDbEntity
  8
GR1_01
  6
Continuous
 62
     7
370
    13
100
AcDbBlockReference
  2
FXTIP_ARROW_E
 10
710.3595064061769
 20
131.9127256689068
 30
0.0
 41
2.0
 42
2.0
 50
360.0
  0
LINE
  5
51C
330
1A
100
AcDbEntity
  8
GR1_01
  6
Continuous
 62
     7
370
    13
100
AcDbLine
 10
702.359506406177
 20
123.9127256689068
 30
0.0
 11
702.3595064061769
 21
132.9127256689068
 31
0.0
  0
TEXT
  5
51D
330
1A
100
AcDbEntity
  8
GR1_01
  6
Continuous
 62
     7
370
    13
100
AcDbText
 10
771.359521484375
 20
117.1127197742462
 30
0.0
 40
3.5
  1
５０
 50
90.0
 41
0.8363636190241034
  7
FX_VECTOR
 72
     5
 11
771.359521484375
 21
121.7127196788788
 31
0.0
100
AcDbText
  0
LINE
  5
51E
330
1A
100
AcDbEntity
  8
GR1_01
  6
Continuous
 62
     7
370
    13
100
AcDbLine
 10
772.359506406177
 20
116.9127256689068
 30
0.0
 11
772.359506406177
 21
121.9127256689068
 31
0.0
  0
INSERT
  5
51F
330
1A
100
AcDbEntity
  8
GR1_01
  6
Continuous
 62
     7
370
    13
100
AcDbBlockReference
  2
FXTIP_ARROW_S
 10
772.359506406177
 20
116.9127256689068
 30
0.0
 41
2.0
 42
2.0
 50
270.0
  0
INSERT
  5
520
330
1A
100
AcDbEntity
  8
GR1_01
  6
Continuous
 62
     7
370
    13
100
AcDbBlockReference
  2
FXTIP_ARROW_E
 10
772.359506406177
 20
121.9127256689068
 30
0.0
 41
2.0
 42
2.0
 50
90.0
  0
LINE
  5
521
330
1A
100
AcDbEntity
  8
GR1_01
  6
Continuous
 62
     7
370
    13
100
AcDbLine
 10
764.3595064061769
 20
116.9127256689068
 30
0.0
 11
773.359506406177
 21
116.9127256689068
 31
0.0
  0
LINE
  5
522
330
1A
100
AcDbEntity
  8
GR1_01
  6
Continuous
 62
     7
370
    13
100
AcDbLine
 10
764.3595064061769
 20
121.9127256689068
 30
0.0
 11
773.359506406177
 21
121.9127256689068
 31
0.0
  0
TEXT
  5
523
330
1A
100
AcDbEntity
  8
GR1_01
  6
Continuous
 62
     7
370
    13
100
AcDbText
 10
778.359521484375
 20
109.4627197980881
 30
0.0
 40
3.5
  1
１８０
 50
90.0
 41
0.8117646890528062
  7
FX_VECTOR
 72
     5
 11
778.359521484375
 21
116.3627196550369
 31
0.0
100
AcDbText
  0
LINE
  5
524
330
1A
100
AcDbEntity
  8
GR1_01
  6
Continuous
 62
     7
370
    13
100
AcDbLine
 10
779.359506406177
 20
103.9127256689068
 30
0.0
 11
779.359506406177
 21
121.9127256689068
 31
0.0
  0
INSERT
  5
525
330
1A
100
AcDbEntity
  8
GR1_01
  6
Continuous
 62
     7
370
    13
100
AcDbBlockReference
  2
FXTIP_ARROW_S
 10
779.359506406177
 20
103.9127256689068
 30
0.0
 41
2.0
 42
2.0
 50
270.0
  0
INSERT
  5
526
330
1A
100
AcDbEntity
  8
GR1_01
  6
Continuous
 62
     7
370
    13
100
AcDbBlockReference
  2
FXTIP_ARROW_E
 10
779.359506406177
 20
121.9127256689068
 30
0.0
 41
2.0
 42
2.0
 50
90.0
  0
LINE
  5
527
330
1A
100
AcDbEntity
  8
GR1_01
  6
Continuous
 62
     7
370
    13
100
AcDbLine
 10
764.3595064061772
 20
103.9127256689068
 30
0.0
 11
780.359506406177
 21
103.9127256689068
 31
0.0
  0
LINE
  5
528
330
1A
100
AcDbEntity
  8
GR1_01
  6
Continuous
 62
     7
370
    13
100
AcDbLine
 10
764.3595064061769
 20
121.9127256689068
 30
0.0
 11
780.359506406177
 21
121.9127256689068
 31
0.0
  0
TEXT
  5
529
330
1A
100
AcDbEntity
  8
GR1_01
  6
Continuous
 62
     7
370
    13
100
AcDbText
 10
796.359521484375
 20
153.8127197742462
 30
0.0
 40
3.5
  1
３５
 50
90.0
 41
0.8363636190241034
  7
FX_VECTOR
 72
     5
 11
796.359521484375
 21
158.4127196788788
 31
0.0
100
AcDbText
  0
LINE
  5
52A
330
1A
100
AcDbEntity
  8
GR1_01
  6
Continuous
 62
     7
370
    13
100
AcDbLine
 10
797.3595064061769
 20
159.4127256689069
 30
0.0
 11
797.3595064061769
 21
162.9127256689068
 31
0.0
  0
LINE
  5
52B
330
1A
100
AcDbEntity
  8
GR1_01
  6
Continuous
 62
     7
370
    13
100
AcDbLine
 10
805.3595064061769
 20
159.4127256689069
 30
0.0
 11
796.3595064061769
 21
159.4127256689069
 31
0.0
  0
LINE
  5
52C
330
1A
100
AcDbEntity
  8
GR1_01
  6
Continuous
 62
     7
370
    13
100
AcDbLine
 10
805.3595064061769
 20
162.9127256689068
 30
0.0
 11
796.3595064061769
 21
162.9127256689068
 31
0.0
  0
LINE
  5
52D
330
1A
100
AcDbEntity
  8
GR1_01
  6
Continuous
 62
     7
370
    13
100
AcDbLine
 10
797.3595064061769
 20
152.8127256689068
 30
0.0
 11
797.3595064061769
 21
159.4127256689069
 31
0.0
  0
INSERT
  5
52E
330
1A
100
AcDbEntity
  8
GR1_01
  6
Continuous
 62
     7
370
    13
100
AcDbBlockReference
  2
FXTIP_ARROW_E
 10
797.3595064061769
 20
159.4127256689069
 30
0.0
 41
2.0
 42
2.0
 50
90.0
  0
TEXT
  5
52F
330
1A
100
AcDbEntity
  8
GR1_01
  6
Continuous
 62
     7
370
    13
100
AcDbText
 10
796.359521484375
 20
164.8627197742462
 30
0.0
 40
3.5
  1
８５
 50
90.0
 41
0.8363636190241034
  7
FX_VECTOR
 72
     5
 11
796.359521484375
 21
169.4627196788788
 31
0.0
100
AcDbText
  0
LINE
  5
530
330
1A
100
AcDbEntity
  8
GR1_01
  6
Continuous
 62
     7
370
    13
100
AcDbLine
 10
797.3595064061769
 20
162.9127256689068
 30
0.0
 11
797.3595064061769
 21
171.4127256689067
 31
0.0
  0
INSERT
  5
531
330
1A
100
AcDbEntity
  8
GR1_01
  6
Continuous
 62
     7
370
    13
100
AcDbBlockReference
  2
FXTIP_ARROW_S
 10
797.3595064061769
 20
162.9127256689068
 30
0.0
 41
2.0
 42
2.0
 50
270.0
  0
INSERT
  5
532
330
1A
100
AcDbEntity
  8
GR1_01
  6
Continuous
 62
     7
370
    13
100
AcDbBlockReference
  2
FXTIP_ARROW_E
 10
797.3595064061769
 20
171.4127256689067
 30
0.0
 41
2.0
 42
2.0
 50
90.0
  0
LINE
  5
533
330
1A
100
AcDbEntity
  8
GR1_01
  6
Continuous
 62
     7
370
    13
100
AcDbLine
 10
805.3595064061769
 20
171.4127256689067
 30
0.0
 11
796.3595064061769
 21
171.4127256689067
 31
0.0
  0
TEXT
  5
534
330
1A
100
AcDbEntity
  8
GR1_01
  6
Continuous
 62
     7
370
    13
100
AcDbText
 10
808.9095215559006
 20
182.4127197259604
 30
0.0
 40
3.5
  1
１００
 41
0.8117646890528062
  7
FX_VECTOR
 72
     5
 11
815.8095214128494
 21
182.4127197271646
 31
0.0
100
AcDbText
  0
LINE
  5
535
330
1A
100
AcDbEntity
  8
GR1_01
  6
Continuous
 62
     7
370
    13
100
AcDbLine
 10
807.3595064061769
 20
181.4127256689068
 30
0.0
 11
817.3595064061769
 21
181.4127256689068
 31
0.0
  0
INSERT
  5
536
330
1A
100
AcDbEntity
  8
GR1_01
  6
Continuous
 62
     7
370
    13
100
AcDbBlockReference
  2
FXTIP_ARROW_S
 10
807.3595064061769
 20
181.4127256689068
 30
0.0
 41
2.0
 42
2.0
 50
180.0
  0
INSERT
  5
537
330
1A
100
AcDbEntity
  8
GR1_01
  6
Continuous
 62
     7
370
    13
100
AcDbBlockReference
  2
FXTIP_ARROW_E
 10
817.3595064061769
 20
181.4127256689068
 30
0.0
 41
2.0
 42
2.0
 50
360.0
  0
LINE
  5
538
330
1A
100
AcDbEntity
  8
GR1_01
  6
Continuous
 62
     7
370
    13
100
AcDbLine
 10
807.3595064061769
 20
173.4127256689068
 30
0.0
 11
807.3595064061769
 21
182.4127256689068
 31
0.0
  0
LINE
  5
539
330
1A
100
AcDbEntity
  8
GR1_01
  6
Continuous
 62
     7
370
    13
100
AcDbLine
 10
817.3595064061769
 20
173.4127256689067
 30
0.0
 11
817.3595064061769
 21
182.4127256689068
 31
0.0
  0
TEXT
  5
53A
330
1A
100
AcDbEntity
  8
GR1_01
  6
Continuous
 62
     7
370
    13
100
AcDbText
 10
818.0594727039338
 20
182.4127197261611
 30
0.0
 40
3.5
  1
６０
 41
0.8363636190241034
  7
FX_VECTOR
 72
     5
 11
822.6594726085664
 21
182.4127197269639
 31
0.0
100
AcDbText
  0
LINE
  5
53B
330
1A
100
AcDbEntity
  8
GR1_01
  6
Continuous
 62
     7
370
    13
100
AcDbLine
 10
817.3595064061769
 20
181.4127256689068
 30
0.0
 11
823.3595064061769
 21
181.4127256689068
 31
0.0
  0
INSERT
  5
53C
330
1A
100
AcDbEntity
  8
GR1_01
  6
Continuous
 62
     7
370
    13
100
AcDbBlockReference
  2
FXTIP_ARROW_S
 10
817.3595064061769
 20
181.4127256689068
 30
0.0
 41
2.0
 42
2.0
 50
180.0
  0
INSERT
  5
53D
330
1A
100
AcDbEntity
  8
GR1_01
  6
Continuous
 62
     7
370
    13
100
AcDbBlockReference
  2
FXTIP_ARROW_E
 10
823.3595064061769
 20
181.4127256689068
 30
0.0
 41
2.0
 42
2.0
 50
360.0
  0
LINE
  5
53E
330
1A
100
AcDbEntity
  8
GR1_01
  6
Continuous
 62
     7
370
    13
100
AcDbLine
 10
823.3595064061769
 20
173.4127256689069
 30
0.0
 11
823.3595064061769
 21
182.4127256689068
 31
0.0
  0
TEXT
  5
53F
330
1A
100
AcDbEntity
  8
GR1_01
  6
Continuous
 62
     7
370
    13
100
AcDbText
 10
826.3594727039338
 20
182.4127197261611
 30
0.0
 40
3.5
  1
２０
 41
0.8363636190241034
  7
FX_VECTOR
 72
     5
 11
830.9594726085663
 21
182.4127197269639
 31
0.0
100
AcDbText
  0
LINE
  5
540
330
1A
100
AcDbEntity
  8
GR1_01
  6
Continuous
 62
     7
370
    13
100
AcDbLine
 10
823.3595064061769
 20
181.4127256689068
 30
0.0
 11
825.3595064061769
 21
181.4127256689068
 31
0.0
  0
LINE
  5
541
330
1A
100
AcDbEntity
  8
GR1_01
  6
Continuous
 62
     7
370
    13
100
AcDbLine
 10
825.3595064061769
 20
173.4127256689068
 30
0.0
 11
825.3595064061769
 21
182.4127256689068
 31
0.0
  0
LINE
  5
542
330
1A
100
AcDbEntity
  8
GR1_01
  6
Continuous
 62
     7
370
    13
100
AcDbLine
 10
825.3595064061769
 20
181.4127256689068
 30
0.0
 11
831.9595064061768
 21
181.4127256689068
 31
0.0
  0
INSERT
  5
543
330
1A
100
AcDbEntity
  8
GR1_01
  6
Continuous
 62
     7
370
    13
100
AcDbBlockReference
  2
FXTIP_ARROW_S
 10
825.3595064061769
 20
181.4127256689068
 30
0.0
 41
2.0
 42
2.0
 50
180.0
  0
TEXT
  5
544
330
1A
100
AcDbEntity
  8
GR1_01
  6
Continuous
 62
     7
370
    13
100
AcDbText
 10
834.3594726562501
 20
164.8627197742462
 30
0.0
 40
3.5
  1
８５
 50
90.0
 41
0.8363636190241034
  7
FX_VECTOR
 72
     5
 11
834.3594726562501
 21
169.4627196788788
 31
0.0
100
AcDbText
  0
LINE
  5
545
330
1A
100
AcDbEntity
  8
GR1_01
  6
Continuous
 62
     7
370
    13
100
AcDbLine
 10
835.3595064061769
 20
162.9127256689068
 30
0.0
 11
835.3595064061769
 21
171.4127256689069
 31
0.0
  0
INSERT
  5
546
330
1A
100
AcDbEntity
  8
GR1_01
  6
Continuous
 62
     7
370
    13
100
AcDbBlockReference
  2
FXTIP_ARROW_S
 10
835.3595064061769
 20
162.9127256689068
 30
0.0
 41
2.0
 42
2.0
 50
270.0
  0
INSERT
  5
547
330
1A
100
AcDbEntity
  8
GR1_01
  6
Continuous
 62
     7
370
    13
100
AcDbBlockReference
  2
FXTIP_ARROW_E
 10
835.3595064061769
 20
171.4127256689069
 30
0.0
 41
2.0
 42
2.0
 50
90.0
  0
LINE
  5
548
330
1A
100
AcDbEntity
  8
GR1_01
  6
Continuous
 62
     7
370
    13
100
AcDbLine
 10
827.3595064061769
 20
162.9127256689068
 30
0.0
 11
836.3595064061769
 21
162.9127256689068
 31
0.0
  0
LINE
  5
549
330
1A
100
AcDbEntity
  8
GR1_01
  6
Continuous
 62
     7
370
    13
100
AcDbLine
 10
827.3595064061769
 20
171.4127256689069
 30
0.0
 11
836.3595064061769
 21
171.4127256689069
 31
0.0
  0
TEXT
  5
54A
330
1A
100
AcDbEntity
  8
GR1_01
  6
Continuous
 62
     7
370
    13
100
AcDbText
 10
834.3594726562501
 20
153.8127197742462
 30
0.0
 40
3.5
  1
３５
 50
90.0
 41
0.8363636190241034
  7
FX_VECTOR
 72
     5
 11
834.3594726562501
 21
158.4127196788788
 31
0.0
100
AcDbText
  0
LINE
  5
54B
330
1A
100
AcDbEntity
  8
GR1_01
  6
Continuous
 62
     7
370
    13
100
AcDbLine
 10
835.3595064061769
 20
159.4127256689068
 30
0.0
 11
835.3595064061769
 21
162.9127256689068
 31
0.0
  0
LINE
  5
54C
330
1A
100
AcDbEntity
  8
GR1_01
  6
Continuous
 62
     7
370
    13
100
AcDbLine
 10
827.3595064061769
 20
159.4127256689068
 30
0.0
 11
836.3595064061769
 21
159.4127256689068
 31
0.0
  0
LINE
  5
54D
330
1A
100
AcDbEntity
  8
GR1_01
  6
Continuous
 62
     7
370
    13
100
AcDbLine
 10
835.3595064061769
 20
152.8127256689068
 30
0.0
 11
835.3595064061769
 21
159.4127256689068
 31
0.0
  0
INSERT
  5
54E
330
1A
100
AcDbEntity
  8
GR1_01
  6
Continuous
 62
     7
370
    13
100
AcDbBlockReference
  2
FXTIP_ARROW_E
 10
835.3595064061769
 20
159.4127256689068
 30
0.0
 41
2.0
 42
2.0
 50
90.0
  0
TEXT
  5
54F
330
1A
100
AcDbEntity
  8
GR1_01
  6
Continuous
 62
     7
370
    13
100
AcDbText
 10
841.3594726562501
 20
161.9627197980881
 30
0.0
 40
3.5
  1
１２０
 50
90.0
 41
0.8117646890528062
  7
FX_VECTOR
 72
     5
 11
841.3594726562501
 21
168.8627196550369
 31
0.0
100
AcDbText
  0
LINE
  5
550
330
1A
100
AcDbEntity
  8
GR1_01
  6
Continuous
 62
     7
370
    13
100
AcDbLine
 10
842.3595064061769
 20
159.4127256689068
 30
0.0
 11
842.3595064061769
 21
171.4127256689069
 31
0.0
  0
INSERT
  5
551
330
1A
100
AcDbEntity
  8
GR1_01
  6
Continuous
 62
     7
370
    13
100
AcDbBlockReference
  2
FXTIP_ARROW_S
 10
842.3595064061769
 20
159.4127256689068
 30
0.0
 41
2.0
 42
2.0
 50
270.0
  0
INSERT
  5
552
330
1A
100
AcDbEntity
  8
GR1_01
  6
Continuous
 62
     7
370
    13
100
AcDbBlockReference
  2
FXTIP_ARROW_E
 10
842.3595064061769
 20
171.4127256689069
 30
0.0
 41
2.0
 42
2.0
 50
90.0
  0
LINE
  5
553
330
1A
100
AcDbEntity
  8
GR1_01
  6
Continuous
 62
     7
370
    13
100
AcDbLine
 10
827.3595064061769
 20
159.4127256689068
 30
0.0
 11
843.3595064061769
 21
159.4127256689068
 31
0.0
  0
LINE
  5
554
330
1A
100
AcDbEntity
  8
GR1_01
  6
Continuous
 62
     7
370
    13
100
AcDbLine
 10
832.1494068424217
 20
171.4127256689069
 30
0.0
 11
843.3595064061769
 21
171.4127256689069
 31
0.0
  0
TEXT
  5
555
330
1A
100
AcDbEntity
  8
GR1_01
  6
Continuous
 62
     7
370
    13
100
AcDbText
 10
812.9095215559006
 20
150.4127197259604
 30
0.0
 40
3.5
  1
１８０
 41
0.8117646890528062
  7
FX_VECTOR
 72
     5
 11
819.8095214128494
 21
150.4127197271646
 31
0.0
100
AcDbText
  0
LINE
  5
556
330
1A
100
AcDbEntity
  8
GR1_01
  6
Continuous
 62
     7
370
    13
100
AcDbLine
 10
807.3595064061769
 20
149.4127256689068
 30
0.0
 11
825.3595064061769
 21
149.4127256689068
 31
0.0
  0
INSERT
  5
557
330
1A
100
AcDbEntity
  8
GR1_01
  6
Continuous
 62
     7
370
    13
100
AcDbBlockReference
  2
FXTIP_ARROW_S
 10
807.3595064061769
 20
149.4127256689068
 30
0.0
 41
2.0
 42
2.0
 50
180.0
  0
INSERT
  5
558
330
1A
100
AcDbEntity
  8
GR1_01
  6
Continuous
 62
     7
370
    13
100
AcDbBlockReference
  2
FXTIP_ARROW_E
 10
825.3595064061769
 20
149.4127256689068
 30
0.0
 41
2.0
 42
2.0
 50
360.0
  0
LINE
  5
559
330
1A
100
AcDbEntity
  8
GR1_01
  6
Continuous
 62
     7
370
    13
100
AcDbLine
 10
807.3595064061769
 20
157.4127256689068
 30
0.0
 11
807.3595064061769
 21
148.4127256689068
 31
0.0
  0
LINE
  5
55A
330
1A
100
AcDbEntity
  8
GR1_01
  6
Continuous
 62
     7
370
    13
100
AcDbLine
 10
825.359506406177
 20
157.4127256689068
 30
0.0
 11
825.3595064061769
 21
148.4127256689068
 31
0.0
  0
TEXT
  5
55B
330
1A
100
AcDbEntity
  8
GR1_01
  6
Continuous
 62
     7
370
    13
100
AcDbText
 10
842.3594726562501
 20
112.7563599348068
 30
0.0
 40
3.5
  1
１２０
 50
90.0
 41
0.8117646890528062
  7
FX_VECTOR
 72
     5
 11
842.3594726562501
 21
119.6563597917557
 31
0.0
100
AcDbText
  0
LINE
  5
55C
330
1A
100
AcDbEntity
  8
GR1_01
  6
Continuous
 62
     7
370
    13
100
AcDbLine
 10
843.3595064061774
 20
110.2063651399248
 30
0.0
 11
843.3595064061774
 21
122.2063651399248
 31
0.0
  0
INSERT
  5
55D
330
1A
100
AcDbEntity
  8
GR1_01
  6
Continuous
 62
     7
370
    13
100
AcDbBlockReference
  2
FXTIP_ARROW_S
 10
843.3595064061774
 20
110.2063651399248
 30
0.0
 41
2.0
 42
2.0
 50
270.0
  0
INSERT
  5
55E
330
1A
100
AcDbEntity
  8
GR1_01
  6
Continuous
 62
     7
370
    13
100
AcDbBlockReference
  2
FXTIP_ARROW_E
 10
843.3595064061774
 20
122.2063651399248
 30
0.0
 41
2.0
 42
2.0
 50
90.0
  0
LINE
  5
55F
330
1A
100
AcDbEntity
  8
GR1_01
  6
Continuous
 62
     7
370
    13
100
AcDbLine
 10
835.3595064061774
 20
110.2063651399248
 30
0.0
 11
844.3595064061774
 21
110.2063651399248
 31
0.0
  0
LINE
  5
560
330
1A
100
AcDbEntity
  8
GR1_01
  6
Continuous
 62
     7
370
    13
100
AcDbLine
 10
835.3595064061774
 20
122.2063651399248
 30
0.0
 11
844.3595064061774
 21
122.2063651399248
 31
0.0
  0
TEXT
  5
561
330
1A
100
AcDbEntity
  8
GR1_01
  6
Continuous
 62
     7
370
    13
100
AcDbText
 10
819.3594726562501
 20
112.5908081769943
 30
0.0
 40
3.5
  1
１６５
 50
90.0
 41
0.8117646890528062
  7
FX_VECTOR
 72
     5
 11
819.3594726562501
 21
119.4908080339432
 31
0.0
100
AcDbText
  0
LINE
  5
562
330
1A
100
AcDbEntity
  8
GR1_01
  6
Continuous
 62
     7
370
    13
100
AcDbLine
 10
820.3595064061773
 20
107.7908174495961
 30
0.0
 11
820.3595064061773
 21
124.2908174495961
 31
0.0
  0
INSERT
  5
563
330
1A
100
AcDbEntity
  8
GR1_01
  6
Continuous
 62
     7
370
    13
100
AcDbBlockReference
  2
FXTIP_ARROW_S
 10
820.3595064061773
 20
107.7908174495961
 30
0.0
 41
2.0
 42
2.0
 50
270.0
  0
INSERT
  5
564
330
1A
100
AcDbEntity
  8
GR1_01
  6
Continuous
 62
     7
370
    13
100
AcDbBlockReference
  2
FXTIP_ARROW_E
 10
820.3595064061773
 20
124.2908174495961
 30
0.0
 41
2.0
 42
2.0
 50
90.0
  0
LINE
  5
565
330
1A
100
AcDbEntity
  8
GR1_01
  6
Continuous
 62
     7
370
    13
100
AcDbLine
 10
804.8595064061774
 20
107.7908174495961
 30
0.0
 11
821.3595064061773
 21
107.7908174495961
 31
0.0
  0
LINE
  5
566
330
1A
100
AcDbEntity
  8
GR1_01
  6
Continuous
 62
     7
370
    13
100
AcDbLine
 10
805.3595064061773
 20
124.2908174495961
 30
0.0
 11
821.3595064061773
 21
124.2908174495961
 31
0.0
  0
TEXT
  5
567
330
1A
100
AcDbEntity
  8
GR1_01
  6
Continuous
 62
     7
370
    13
100
AcDbText
 10
812.359521484375
 20
111.8408081769943
 30
0.0
 40
3.5
  1
１５０
 50
90.0
 41
0.8117646890528062
  7
FX_VECTOR
 72
     5
 11
812.359521484375
 21
118.7408080339432
 31
0.0
100
AcDbText
  0
LINE
  5
568
330
1A
100
AcDbEntity
  8
GR1_01
  6
Continuous
 62
     7
370
    13
100
AcDbLine
 10
813.3595064061773
 20
107.7908174495961
 30
0.0
 11
813.3595064061773
 21
122.7908174495961
 31
0.0
  0
INSERT
  5
569
330
1A
100
AcDbEntity
  8
GR1_01
  6
Continuous
 62
     7
370
    13
100
AcDbBlockReference
  2
FXTIP_ARROW_S
 10
813.3595064061773
 20
107.7908174495961
 30
0.0
 41
2.0
 42
2.0
 50
270.0
  0
INSERT
  5
56A
330
1A
100
AcDbEntity
  8
GR1_01
  6
Continuous
 62
     7
370
    13
100
AcDbBlockReference
  2
FXTIP_ARROW_E
 10
813.3595064061773
 20
122.7908174495961
 30
0.0
 41
2.0
 42
2.0
 50
90.0
  0
LINE
  5
56B
330
1A
100
AcDbEntity
  8
GR1_01
  6
Continuous
 62
     7
370
    13
100
AcDbLine
 10
804.8595064061774
 20
107.7908174495961
 30
0.0
 11
814.3595064061773
 21
107.7908174495961
 31
0.0
  0
LINE
  5
56C
330
1A
100
AcDbEntity
  8
GR1_01
  6
Continuous
 62
     7
370
    13
100
AcDbLine
 10
805.8595064061774
 20
122.7908174495961
 30
0.0
 11
814.3595064061773
 21
122.7908174495961
 31
0.0
  0
ENDSEC
  0
SECTION
  2
OBJECTS
  0
DICTIONARY
  5
C
330
0
100
AcDbDictionary
281
     1
  3
ACAD_GROUP
350
D
  3
ACAD_LAYOUT
350
51
  3
ACAD_MLEADERSTYLE
350
56F
  3
ACAD_MLINESTYLE
350
E
  3
ACAD_SCALELIST
350
54
  3
AcDbVariableDictionary
350
56D
  0
DICTIONARY
  5
D
102
{ACAD_REACTORS
330
C
102
}
330
C
100
AcDbDictionary
281
     1
  0
DICTIONARY
  5
51
102
{ACAD_REACTORS
330
C
102
}
330
C
100
AcDbDictionary
281
     1
  3
Layout1
350
53
  3
Model
350
52
  0
DICTIONARY
  5
56F
102
{ACAD_REACTORS
330
C
102
}
330
C
100
AcDbDictionary
281
     1
  0
DICTIONARY
  5
E
102
{ACAD_REACTORS
330
C
102
}
330
C
100
AcDbDictionary
281
     1
  3
STANDARD
350
13
  0
DICTIONARY
  5
54
102
{ACAD_REACTORS
330
C
102
}
330
C
100
AcDbDictionary
281
     1
  3
A0
350
55
  3
A1
350
56
  3
A2
350
57
  3
A3
350
58
  3
A4
350
59
  3
A5
350
5A
  3
A6
350
5B
  3
A7
350
5C
  3
A8
350
5D
  3
A9
350
5E
  3
B0
350
5F
  3
B1
350
60
  3
B2
350
61
  3
B3
350
62
  3
B4
350
63
  3
B5
350
64
  3
B6
350
65
  3
B7
350
66
  3
B8
350
67
  3
B9
350
68
  3
C0
350
69
  3
C1
350
6A
  3
C2
350
6B
  3
C3
350
6C
  3
C4
350
6D
  3
C5
350
6E
  3
C6
350
6F
  3
C7
350
70
  3
C8
350
71
  3
C9
350
72
  3
D0
350
73
  3
D1
350
74
  3
D2
350
75
  0
DICTIONARY
  5
56D
102
{ACAD_REACTORS
330
C
102
}
330
C
100
AcDbDictionary
281
     1
  3
CANNOSCALE
350
570
  3
DIMASSOC
350
571
  3
HIDETEXT
350
572
  0
LAYOUT
  5
53
102
{ACAD_REACTORS
330
51
102
}
330
51
100
AcDbPlotSettings
  1

  2
none_device
  4

  6

 40
0.0
 41
0.0
 42
0.0
 43
0.0
 44
0.0
 45
0.0
 46
0.0
 47
0.0
 48
0.0
 49
0.0
140
0.0
141
0.0
142
1.0
143
1.0
 70
   688
 72
     0
 73
     0
 74
     5
  7

 75
    16
147
1.0
148
0.0
149
0.0
100
AcDbLayout
  1
Layout1
 70
     1
 71
     1
 10
0.0
 20
0.0
 11
0.0
 21
0.0
 12
0.0
 22
0.0
 32
0.0
 14
0.0
 24
0.0
 34
0.0
 15
0.0
 25
0.0
 35
0.0
146
0.0
 13
0.0
 23
0.0
 33
0.0
 16
1.0
 26
0.0
 36
0.0
 17
0.0
 27
1.0
 37
0.0
 76
     0
330
17
  0
LAYOUT
  5
52
102
{ACAD_REACTORS
330
51
102
}
330
51
100
AcDbPlotSettings
  1

  2
none_device
  4

  6

 40
0.0
 41
0.0
 42
0.0
 43
0.0
 44
0.0
 45
0.0
 46
0.0
 47
0.0
 48
0.0
 49
0.0
140
0.0
141
0.0
142
1.0
143
1.0
 70
   688
 72
     0
 73
     0
 74
     5
  7

 75
    16
147
1.0
148
0.0
149
0.0
100
AcDbLayout
  1
Model
 70
     1
 71
     0
 10
591.7209567771588
 20
8.110360254358852
 11
962.9709641969546
 21
270.610365500679
 12
591.7209567771588
 22
8.110360254358852
 32
0.0
 14
591.7209567771588
 24
8.110360254358852
 34
0.0
 15
962.9709641969546
 25
270.610365500679
 35
0.0
146
0.0
 13
0.0
 23
0.0
 33
0.0
 16
1.0
 26
0.0
 36
0.0
 17
0.0
 27
1.0
 37
0.0
 76
     0
330
1A
331
50
  0
MLINESTYLE
  5
13
102
{ACAD_REACTORS
330
E
102
}
330
E
100
AcDbMlineStyle
  2
STANDARD
 70
     0
  3

 62
     0
 51
90.0
 52
90.0
 71
     2
 49
0.5
 62
   256
  6
BYLAYER
 49
-0.5
 62
   256
  6
BYLAYER
  0
SCALE
  5
55
102
{ACAD_REACTORS
330
54
102
}
330
54
100
AcDbScale
 70
     0
300
1:1
140
1.0
141
1.0
290
     1
  0
SCALE
  5
56
102
{ACAD_REACTORS
330
54
102
}
330
54
100
AcDbScale
 70
     0
300
1:2
140
1.0
141
2.0
290
     0
  0
SCALE
  5
57
102
{ACAD_REACTORS
330
54
102
}
330
54
100
AcDbScale
 70
     0
300
1:4
140
1.0
141
4.0
290
     0
  0
SCALE
  5
58
102
{ACAD_REACTORS
330
54
102
}
330
54
100
AcDbScale
 70
     0
300
1:5
140
1.0
141
5.0
290
     0
  0
SCALE
  5
59
102
{ACAD_REACTORS
330
54
102
}
330
54
100
AcDbScale
 70
     0
300
1:8
140
1.0
141
8.0
290
     0
  0
SCALE
  5
5A
102
{ACAD_REACTORS
330
54
102
}
330
54
100
AcDbScale
 70
     0
300
1:10
140
1.0
141
10.0
290
     0
  0
SCALE
  5
5B
102
{ACAD_REACTORS
330
54
102
}
330
54
100
AcDbScale
 70
     0
300
1:16
140
1.0
141
16.0
290
     0
  0
SCALE
  5
5C
102
{ACAD_REACTORS
330
54
102
}
330
54
100
AcDbScale
 70
     0
300
1:20
140
1.0
141
20.0
290
     0
  0
SCALE
  5
5D
102
{ACAD_REACTORS
330
54
102
}
330
54
100
AcDbScale
 70
     0
300
1:30
140
1.0
141
30.0
290
     0
  0
SCALE
  5
5E
102
{ACAD_REACTORS
330
54
102
}
330
54
100
AcDbScale
 70
     0
300
1:40
140
1.0
141
40.0
290
     0
  0
SCALE
  5
5F
102
{ACAD_REACTORS
330
54
102
}
330
54
100
AcDbScale
 70
     0
300
1:50
140
1.0
141
50.0
290
     0
  0
SCALE
  5
60
102
{ACAD_REACTORS
330
54
102
}
330
54
100
AcDbScale
 70
     0
300
1:100
140
1.0
141
100.0
290
     0
  0
SCALE
  5
61
102
{ACAD_REACTORS
330
54
102
}
330
54
100
AcDbScale
 70
     0
300
2:1
140
2.0
141
1.0
290
     0
  0
SCALE
  5
62
102
{ACAD_REACTORS
330
54
102
}
330
54
100
AcDbScale
 70
     0
300
4:1
140
4.0
141
1.0
290
     0
  0
SCALE
  5
63
102
{ACAD_REACTORS
330
54
102
}
330
54
100
AcDbScale
 70
     0
300
8:1
140
8.0
141
1.0
290
     0
  0
SCALE
  5
64
102
{ACAD_REACTORS
330
54
102
}
330
54
100
AcDbScale
 70
     0
300
10:1
140
10.0
141
1.0
290
     0
  0
SCALE
  5
65
102
{ACAD_REACTORS
330
54
102
}
330
54
100
AcDbScale
 70
     0
300
100:1
140
100.0
141
1.0
290
     0
  0
SCALE
  5
66
102
{ACAD_REACTORS
330
54
102
}
330
54
100
AcDbScale
 70
     0
300
1/128" = 1'-0"
140
0.0078125
141
12.0
290
     0
  0
SCALE
  5
67
102
{ACAD_REACTORS
330
54
102
}
330
54
100
AcDbScale
 70
     0
300
1/64" = 1'-0"
140
0.015625
141
12.0
290
     0
  0
SCALE
  5
68
102
{ACAD_REACTORS
330
54
102
}
330
54
100
AcDbScale
 70
     0
300
1/32" = 1'-0"
140
0.03125
141
12.0
290
     0
  0
SCALE
  5
69
102
{ACAD_REACTORS
330
54
102
}
330
54
100
AcDbScale
 70
     0
300
1/16" = 1'-0"
140
0.0625
141
12.0
290
     0
  0
SCALE
  5
6A
102
{ACAD_REACTORS
330
54
102
}
330
54
100
AcDbScale
 70
     0
300
3/32" = 1'-0"
140
0.09375
141
12.0
290
     0
  0
SCALE
  5
6B
102
{ACAD_REACTORS
330
54
102
}
330
54
100
AcDbScale
 70
     0
300
1/8" = 1'-0"
140
0.125
141
12.0
290
     0
  0
SCALE
  5
6C
102
{ACAD_REACTORS
330
54
102
}
330
54
100
AcDbScale
 70
     0
300
3/16" = 1'-0"
140
0.1875
141
12.0
290
     0
  0
SCALE
  5
6D
102
{ACAD_REACTORS
330
54
102
}
330
54
100
AcDbScale
 70
     0
300
1/4" = 1'-0"
140
0.25
141
12.0
290
     0
  0
SCALE
  5
6E
102
{ACAD_REACTORS
330
54
102
}
330
54
100
AcDbScale
 70
     0
300
3/8" = 1'-0"
140
0.375
141
12.0
290
     0
  0
SCALE
  5
6F
102
{ACAD_REACTORS
330
54
102
}
330
54
100
AcDbScale
 70
     0
300
1/2" = 1'-0"
140
0.5
141
12.0
290
     0
  0
SCALE
  5
70
102
{ACAD_REACTORS
330
54
102
}
330
54
100
AcDbScale
 70
     0
300
3/4" = 1'-0"
140
0.75
141
12.0
290
     0
  0
SCALE
  5
71
102
{ACAD_REACTORS
330
54
102
}
330
54
100
AcDbScale
 70
     0
300
1" = 1'-0"
140
1.0
141
12.0
290
     0
  0
SCALE
  5
72
102
{ACAD_REACTORS
330
54
102
}
330
54
100
AcDbScale
 70
     0
300
1-1/2" = 1'-0"
140
1.5
141
12.0
290
     0
  0
SCALE
  5
73
102
{ACAD_REACTORS
330
54
102
}
330
54
100
AcDbScale
 70
     0
300
3" = 1'-0"
140
3.0
141
12.0
290
     0
  0
SCALE
  5
74
102
{ACAD_REACTORS
330
54
102
}
330
54
100
AcDbScale
 70
     0
300
6" = 1'-0"
140
6.0
141
12.0
290
     0
  0
SCALE
  5
75
102
{ACAD_REACTORS
330
54
102
}
330
54
100
AcDbScale
 70
     0
300
1'-0" = 1'-0"
140
12.0
141
12.0
290
     0
  0
DICTIONARYVAR
  5
570
102
{ACAD_REACTORS
330
56D
102
}
330
56D
100
DictionaryVariables
280
     0
  1
1:1
  0
DICTIONARYVAR
  5
571
102
{ACAD_REACTORS
330
56D
102
}
330
56D
100
DictionaryVariables
280
     0
  1
2
  0
DICTIONARYVAR
  5
572
102
{ACAD_REACTORS
330
56D
102
}
330
56D
100
DictionaryVariables
280
     0
  1
1
  0
ENDSEC
  0
EOF
